John Mayer - Your Body Is A Wonderland Chords & Tabs

 

Your Body Is A Wonderland Chords & Tabs

John Mayer Chords & Tabs

Version: 8 Type: Tab

Your Body Is A Wonderland Tab

this is my first tap so if its not completely corect give me a break

John Plays it in drop d but i decided to simplify it there's less finger movement :)

Listen to the recording to get the right rythm

Capo 3


x = Palm Mute


Intro
-------------------------------------------------------------------------|
-----3--x---3---x------3---x---3---x-----3---x---3-----------------------|
-----2--x---2---x------2---x---2---x-----2---x---2-----------------------|
--0-----x---0---x-----------------------------------Play Four Times------|
--------------------0------x---0---x-------------------------------------|
---------------------------------------3-----x---0-----------------------|


-------------------------------------------------------------------------|
-----3--x---3---x------3---x---3---x-----3---x---3-----------------------|
-----2--x---2---x------2---x---2---x-----2---x---2-----------------------|
--0-----x---0---x--------------------------------------------------------|
--------------------0------x---0---x-------------------------------------|
---------------------------------------3-----x---3-----------------------|
We     got     this     afternoon


-------------------------------------------------------------------------|
-----3--x---3---x------3---x---3---x-----3---x---3-----------------------|
-----2--x---2---x------2---x---2---x-----2---x---2-----------------------|
--0-----x---0---x--------------------------------------------------------|
--------------------0------x---0---x-------------------------------------|
---------------------------------------3-----x---3-----------------------|
You    got     this    room   for   Two


-------------------------------------------------------------------------|
-----3--x---3---x------3---x---3---x-----3---x---3-----------------------|
-----2--x---2---x------2---x---2---x-----2---x---2-----------------------|
--0-----x---0---x--------------------------------------------------------|
--------------------0------x---0---x-------------------------------------|
---------------------------------------3-----x---3-----------------------|
One   thing   that   i'm   left   to   do


-------------------------------------------------------------------------|
-----3--x---3---x------3---x---3---x-----3---x---3-----------------------|
-----2--x---2---x------2---x---2---x-----2---x---2-----------------------|
--0-----x---0---x--------------------------------------------------------|
--------------------0------x---0---x-------------------------------------|
---------------------------------------3-----x---3-----------------------|
Discover   Me     Discovering    you


-------------------------------------------------------------------------|
-----3--x---3---x------3---x---3---x-----3---x---3-----------------------|
-----2--x---2---x------2---x---2---x-----2---x---2-----------------------|
--0-----x---0---x--------------------------------------------------------|
--------------------0------x---0---x-------------------------------------|
---------------------------------------3-----x---3-----------------------|
One   mile   to    every    inch of


-------------------------------------------------------------------------|
-----3--x---3---x------3---x---3---x-----3---x---3-----------------------|
-----2--x---2---x------2---x---2---x-----2---x---2-----------------------|
--0-----x---0---x--------------------------------------------------------|
--------------------0------x---0---x-------------------------------------|
---------------------------------------3-----x---3-----------------------|
your      skin     like      porcelain


-------------------------------------------------------------------------|
-----3--x---3---x------3---x---3---x-----3---x---3-----------------------|
-----2--x---2---x------2---x---2---x-----2---x---2-----------------------|
--0-----x---0---x--------------------------------------------------------|
--------------------0------x---0---x-------------------------------------|
---------------------------------------3-----x---3-----------------------|
One      pair     of     candy     lips


-------------------------------------------------------------------------|
-----3--x---3---x------3---x---3---x-----3---x---3-----------------------|
-----2--x---2---x------2---x---2---x-----2---x---2-----------------------|
--0-----x---0---x--------------------------------------------------------|
--------------------0------x---0---x-------------------------------------|
---------------------------------------3-----x---3-----------------------|
And     your     Bubble    Gum    Tounge


----2---0---0-------------2---0---0--------------------------------------|
-------------------------------------------------------------------------|
----2---2---2-------------2---2---2--------------------------------------|
-------------------------------------------------------------------------|
-------------------------------------------------------------------------|
-3---------------------0-------------------------------------------------|
cause if you want love   we'll make it


----2---0---0-------------2---0---0--------------------------------------|
-------------------------------------------------------------------------|
----2---2---2-------------2---2---2--------------------------------------|
-------------------------------------------------------------------------|
-------------------------------------------------------------------------|
-3---------------------0-------------------------------------------------|
swim in a deep sea     of blankets


----2---0---0-------------2---0---0--------------------------------------|
-------------------------------------------------------------------------|
----2---2---2-------------2---2---2--------------------------------------|
-------------------------------------------------------------------------|
-------------------------------------------------------------------------|
-3---------------------0-------------------------------------------------|
take all your big plans and break 'em


-----------------------------------------------------------0-------------|
----0---x---0---x------2---x---2---x-------3---x---3---x-----------------|
----2---x---2---x------2---x---2---x-------2---x---2---x---2-------------|
-------------------------------------------------------------------------|
-------------------------------------------------------------------------|
-0------x---0---x---2------x---2---x----3------x---3---x---0-------------|
This    is     bound    to    be   a    while           Your Body

-------------------------------------------------------------------------|
-----3--x---3---x------3---x---3---x-----3---x---3-----------------------|
-----2--x---2---x------2---x---2---x-----2---x---2-----------------------|
--0-----x---0---x--------------------------------------------------------|
--------------------0------x---0---x-------------------------------------|
---------------------------------------3-----x---3-----------------------|is  a
wonderland                     Your    body

-------------------------------------------------------------------------|
-----3--x---3---x------3---x---3---x-----3---x---3-----------------------|
-----2--x---2---x------2---x---2---x-----2---x---2-----------------------|
--0-----x---0---x--------------------------------------------------------|
--------------------0------x---0---x-------------------------------------|
---------------------------------------3-----x---3-----------------------| is a
wonder   I'll   use   my   hands


-------------------------------------------------------------------------|
-----3--x---3---x------3---x---3---x-----3---x---3-----------------------|
-----2--x---2---x------2---x---2---x-----2---x---2-----------------------|
--0-----x---0---x--------------------------------------------------------|
--------------------0------x---0---x-------------------------------------|
---------------------------------------3-----x---3-----------------------|
something about the way the hair falls in your face

[ Tab from: https://www.guitartabs.cc/tabs/j/john_mayer/your_body_is_a_wonderland_tab_ver_8.html ]
-------------------------------------------------------------------------|
-----3--x---3---x------3---x---3---x-----3---x---3-----------------------|
-----2--x---2---x------2---x---2---x-----2---x---2-----------------------|
--0-----x---0---x--------------------------------------------------------|
--------------------0------x---0---x-------------------------------------|
---------------------------------------3-----x---3-----------------------|
I love the shape you take when crawling towards the pillow case


-------------------------------------------------------------------------|
-----3--x---3---x------3---x---3---x-----3---x---3-----------------------|
-----2--x---2---x------2---x---2---x-----2---x---2-----------------------|
--0-----x---0---x--------------------------------------------------------|
--------------------0------x---0---x-------------------------------------|
---------------------------------------3-----x---3-----------------------|
you tell me where to go and though I might leave to find it


-------------------------------------------------------------------------|
-----3--x---3---x------3---x---3---x-----3---x---3-----------------------|
-----2--x---2---x------2---x---2---x-----2---x---2-----------------------|
--0-----x---0---x--------------------------------------------------------|
--------------------0------x---0---x-------------------------------------|
---------------------------------------3-----x---3-----------------------|
I'll never let your head hit the bed without my hand behind it

----2---0---0-------------2---0---0--------------------------------------|
-------------------------------------------------------------------------|
----2---2---2-------------2---2---2--------------------------------------|
-------------------------------------------------------------------------|
-------------------------------------------------------------------------|
-3---------------------0-------------------------------------------------|
cause if you want love   we'll make it


----2---0---0-------------2---0---0--------------------------------------|
-------------------------------------------------------------------------|
----2---2---2-------------2---2---2--------------------------------------|
-------------------------------------------------------------------------|
-------------------------------------------------------------------------|
-3---------------------0-------------------------------------------------|
swim in a deep sea     of blankets


----2---0---0-------------2---0---0--------------------------------------|
-------------------------------------------------------------------------|
----2---2---2-------------2---2---2--------------------------------------|
-------------------------------------------------------------------------|
-------------------------------------------------------------------------|
-3---------------------0-------------------------------------------------|
take all your big plans and break 'em


-----------------------------------------------------------0-------------|
----0---x---0---x------2---x---2---x-------3---x---3---x-----------------|
----2---x---2---x------2---x---2---x-------2---x---2---x---2-------------|
-------------------------------------------------------------------------|
-------------------------------------------------------------------------|
-0------x---0---x---2------x---2---x----3------x---3---x---0-------------|
This    is     bound    to    be   a    while           Your Body

-------------------------------------------------------------------------|
-----3--x---3---x------3---x---3---x-----3---x---3-----------------------|
-----2--x---2---x------2---x---2---x-----2---x---2-----------------------|
--0-----x---0---x--------------------------------------------------------|
--------------------0------x---0---x-------------------------------------|
---------------------------------------3-----x---3-----------------------|
is  a  wonderland                     Your    body

-------------------------------------------------------------------------|
-----3--x---3---x------3---x---3---x-----3---x---3-----------------------|
-----2--x---2---x------2---x---2---x-----2---x---2-----------------------|
--0-----x---0---x--------------------------------------------------------|
--------------------0------x---0---x-------------------------------------|
---------------------------------------3-----x---3-----------------------|
is a wonder   I'll   use   my   hands

Solo

-----------------------------------------------------------------------|
--14--12--9--7--53--2s46s4---14--12--10-8-12-------------------------|
-----------------------------------------------------------------------|
-------------------------------14--12--10-8-12-------------------------|
--14--12--9--7--53--2s4-6s4-------------------------------------------|
-----------------------------------------------------------------------|

----------------------------------------------12-----------------------|
--14--12--9--7--5--3--2s4-6s4---14--12--9---------14------14----14-----|
----------------------------------------------12-----------------------|
--------------------------------14--12--9---------14---14----14--------|
--14--12--9--7--5--3--2s4-6s4------------------------------------------|
-----------------------------------------------------------------------|


-----------------------------------------------------------0-------------|
----3---x---3---x------3---x---3---x-------3---x---3---x-----------------|
----2---x---2---x------2---x---2---x-------2---x---2---x---2-------------|
-------------------------------------------------------------------------|
-------------------------------------------------------------------------|
--------x-------x----------x-------x-----------x-------x---0-------------|
  (insted of palm mute try fills)                       Your Body


-------------------------------------------------------------------------|
-----3--x---3---x------3---x---3---x-----3---x---3-----------------------|
-----2--x---2---x------2---x---2---x-----2---x---2-----------------------|
--0-----x---0---x--------------------------------------------------------|
--------------------0------x---0---x-------------------------------------|
---------------------------------------3-----x---3-----------------------|
is  a  wonderland                     Your    body

-------------------------------------------------------------------------|
-----3--x---3---x------3---x---3---x-----3---x---3-----------------------|
-----2--x---2---x------2---x---2---x-----2---x---2-----------------------|
--0-----x---0---x--------------------------------------------------------|
--------------------0------x---0---x-------------------------------------|
---------------------------------------3-----x---3-----------------------|
is a wonder   I'll   use   my   hands

-------------------------------------------------------------------------|
-----3--x---3---x------3---x---3---x-----3---x---3-----------------------|
-----2--x---2---x------2---x---2---x-----2---x---2-----------------------|
--0-----x---0---x--------------------------------------------------------|
--------------------0------x---0---x-------------------------------------|
---------------------------------------3-----x---3-----------------------|
Your Body is a wonderland

-------------------------------------------------------------------------|
-----3--x---3---x------3---x---3---x-----3---x---3-----------------------|
-----2--x---2---x------2---x---2---x-----2---x---2-----------------------|
--0-----x---0---x--------------------------------------------------------|
--------------------0------x---0---x-------------------------------------|
---------------------------------------3-----x---3-----------------------|
Dd da dat (repeat fade out)

-------------------------------------------------------------------------|
-----3--x---3---x------3---x---3---x-----3---x---3-----------------------|
-----2--x---2---x------2---x---2---x-----2---x---2-----------------------|
--0-----x---0---x---------------------------------------Fade-Out---------|
--------------------0------x---0---x------------------Continue-repeating-|
---------------------------------------3-----x---3-----------------------|