John Mayer - Heart Of Life Chords & Tabs

 

Heart Of Life Chords & Tabs

John Mayer Chords & Tabs

Version: 4 Type: Tab

Heart Of Life Tab

Artist: John Mayer
Album: Continuum
Song: Heart of Life

this song is amazing and all the tabs on here didnt even come close, this is actually 
john plays, trust me...

Tuning is normal...
make your guitar have as much bass as possible, this is a very smooth song, finger pick 
no picks whatsoever, not even the lead parts...


Intro/Verse:

E------------------------------------------------------------------|
B-9-----9-------9-----11--6----6-----6---9--1----1-1----2----2-2---|
G----10---10-------10--------6---6-----6---------------------------|
D-11---------11-11----11--8--------8-8---8--3--3-----3--4--4-----4-|
A------------------------------------------------------------------|
E------------------------------------------------------------------|

E------------------------------------------------------------------|
B-----------------4------------------------------------------------|
G-6---6-6----5-----5-----------------------------------------------|
D-6-6-----6--6--6---6----------------------------------------------|
A------------------------------------------------------------------|
E------------------------------------------------------------------|
[ Tab from: https://www.guitartabs.cc/tabs/j/john_mayer/heart_of_life_tab_ver_4.html ]
Lead for Verse:
E-----6-8/9---------6/4--------------------------------------------|
B-9~9-------6-4-6---------7-6-4/2-1-------------------------------|
G------------------------5-----------------------------------------|
D------------------------------------------------------------------|
A------------------------------------------------------------------|
E------------------------------------------------------------------|

Chorus:(Pick out the same rhythym as verse)

E------------------------------------------------------------------|
B---4-2---4-2---4-2-2---4------------------------------------------|
G-5-6-3-5-6-3-5-6-3-3-5-6------------------------------------------|
D-6-6-4-6-6-4-6-6-4-4-6-6------------------------------------------|
A------------------------------------------------------------------|
E------------------------------------------------------------------|

Lead for Chorus
E----6/8-9~------6/8-11-9~------6/8-9~6/8---6/8-9~6/8--------------|
B-9~----------9~-------------9~-----------9~----------9~/6-4~------|
G-------------------------------------------------------------6~---|
D------------------------------------------------------------------|
A------------------------------------------------------------------|
E------------------------------------------------------------------|

solo part is the verse part with a little diddy over it, improvise for that...and the 
is pretty self-explanatory...yeah so thats a rad song...thanks for checkin out the tab