John Denver - Annies Song Chords & Tabs

 

Annies Song Chords & Tabs

John Denver Chords & Tabs

Version: 3 Type: Tab

Annies Song Tab

Title: Annies Song
Artist: John Denver
Tabbed by: Jan Kristoffer Vega


This is my version, its more easy and fun tunes...
ako ra ni himo2 kay walay lingaw.. nya lingaw kaau ni bisan "sad song" ang kanta....

    ---== Love and Peace ==---

1st verse:
e|-----5-6-5-3-6--5----2-3-5-7-5-3-1------------------------------|
B|----------------------------------------------------------------|
G|----------------------------------------------------------------|
D|----------------------------------------------------------------|
A|----------------------------------------------------------------|
E|----------------------------------------------------------------|


e|-----5-6-8-10-8-11--10----7-8-10-12-10-14----------------------|
B|----------------------------------------------------------------|
G|----------------------------------------------------------------|
D|----------------------------------------------------------------|
A|----------------------------------------------------------------|
E|----------------------------------------------------------------|


e|-----3-6-5-3-2-6--5----2-3-5-7-5-3-1----------------------------|
B|----------------------------------------------------------------|
G|----------------------------------------------------------------|
D|----------------------------------------------------------------|
A|----------------------------------------------------------------|
E|----------------------------------------------------------------|

[ Tab from: https://www.guitartabs.cc/tabs/j/john_denver/annies_song_tab_ver_3.html ]
e|-----3-6-5-3-6--5----6-8-9-11-9---------------------------------|
B|----------------------------------------------------------------|
G|----------------------------------------------------------------|
D|----------------------------------------------------------------|
A|----------------------------------------------------------------|
E|----------------------------------------------------------------|

2nd verse:
e|-----5-6-5-3-6--5---2-3-5-7-5-3-1---------------------------------|
B|----------------------------------------------------------------|
G|----------------------------------------------------------------|
D|----------------------------------------------------------------|
A|----------------------------------------------------------------|
E|----------------------------------------------------------------|


e|-----5-6-8-10-8-11--10----7-8-10-12-10--14----------------------|
B|----------------------------------------------------------------|
G|----------------------------------------------------------------|
D|----------------------------------------------------------------|
A|----------------------------------------------------------------|
E|----------------------------------------------------------------|


e|-----3-6-5-3-2-6--5----2-3-5-7-5-3-1----------------------------|
B|----------------------------------------------------------------|
G|----------------------------------------------------------------|
D|----------------------------------------------------------------|
A|----------------------------------------------------------------|
E|----------------------------------------------------------------|

e|-----5-6-5-3-6--5---6-8-9-11-9----------------------------------|
B|----------------------------------------------------------------|
G|----------------------------------------------------------------|
D|----------------------------------------------------------------|
A|----------------------------------------------------------------|
E|----------------------------------------------------------------|

                       (repeat 1st verse)

for comments and sugestions 
email @ TrijaN_16@yahoo.com
Have Fun and GOD bless