Joe Tex - I Gotcha Chords & Tabs

 

I Gotcha Chords & Tabs

Joe Tex Chords & Tabs

Version: 1 Type: Bass Tab

I Gotcha Bass Tab

Joe Tex  I Gotcha
rik_verpoorten@hotmail.com

[ Tab from: https://www.guitartabs.cc/tabs/j/joe_tex/i_gotcha_btab.html ]
Verse
G|-------8--10-8-----------------|
D|--8h10---------10-8------------|   repeat, repeat,
A|--------------------10-8-6--6--|   repeat some more
E|-------------------------------|

break

G|--------------5--8-------|
D|---5--8------------------|   X2
A|-------------------------|
E|-------------------------|

Verse
break