Jesus Lizard - Zachariah Chords & Tabs

 

Zachariah Chords & Tabs

Jesus Lizard Chords & Tabs

Version: 1 Type: Tab

Zachariah Tab

-----------------------------------------------------------------------------
			     ZACHARIAH Ė The Jesus Lizard
-----------------------------------------------------------------------------
Tabbed by mochobotica@cox.net


Itís a start.  Iím disappointed no one has tabbed many of these guyís songs.

Here are the riffs for the song.  They are repeated many times through out in various 
 Itís easy enough to figure out where they fit.
[ Tab from: https://www.guitartabs.cc/tabs/j/jesus_lizard/zachariah_tab.html ]
e|-------------------------------------------------------|
B|-------------------------------------------------------|
G|---------------------7b--------------------------------|
D|----------5-----5/7---------------5---------7----------|
A|-------5-----5-----------------5-----5-/-7------(6)----|
E|----3-----------------------3--------------------------|

e|----------------------------------------------|
B|----------------------------------------------|
G|----9-/-12------12-/-10----10-/-9----9---9----|
D|----9-/-12------12-/-10----10-/-9----9---9----|
A|----7-/-10------10-/-8------8-/-7----7---7----|
E|----------------------------------------------|

This riff has multiple variations to it.  You can figure it out yourself pretty easily.
e|---------------------------|
B|---------------------------|
G|---------------------------|
D|----9-9--7-7--9-9-10-10----|
A|----9-9--7-7--9-9-10-10----|
E|----7-7--5-5--7-7--8--8----|


Iím working on a couple of other tabs, but e-mail me anyway if you want me to tab a 
Lizard song.