Jamie T - Pacemaker Chords & Tabs

 

Pacemaker Chords & Tabs

Jamie T Chords & Tabs

Version: 2 Type: Bass Tab

Pacemaker Bass Tab

   
-------------------------------------------------------------------------------
			     Pacemaker  Jamie T
-------------------------------------------------------------------------------

Tabbed By : El Jimbo

Tuning: Standard

G|--------1-2-----1----------------------------------------------------------|
D|-2----2--------------------------------------------------------------------|
A|---------------------------------------------------------------------------|
E|---------------------------------------------------------------------------|
[ Tab from: https://www.guitartabs.cc/tabs/j/jamie_t/pacemaker_btab_ver_2.html ]
G|-------4---6-----4-----------4---6---9--6----------------------------------|
D|-7------------6----------7-------------------------------------------------|
A|---------------------------------------------------------------------------|
E|---------------------------------------------------------------------------|

G|-----------------------------------------------------------------------------|
D|--2-2------------------------------------------------------------------------|
A|------4-44h6-7-----5-5-4-4-2-2----------------------------------------------|
E|----------------5-5----------------------------------------------------------|

G|---------------------------------------------------------------------------|
D|-2-2-2-2-2-2-2-2-6-6-6-6-7-7-7-7-------------------------------------------|
A|---------------------------------------------------------------------------|
E|---------------------------------------------------------------------------|

| /  slide up
| \  slide down
| h  hammer-on
| p  pull-off
| ~  vibrato
| +  harmonic
| x  Mute note
===============================================================================