Jamie T - Back In The Game Chords & Tabs

 

Back In The Game Chords & Tabs

Jamie T Chords & Tabs

Version: 1 Type: Bass Tab

Back In The Game Bass Tab

   
Jamie T - Back in the game

i think i have missed some fills he does
but about right

Take your brother...

G|-11-11----7-7----------------|
D|-12-12----9-9---9-----11-----|    x2
A|----------------10----12-----|
E|-----------------------------|

A crowded room...

G|-11-11-11-11-7-7-7-7--------------------------|
D|-12-12-12-12-9-9-9-9--9--9--9-9--11-11-11-11--|  x1
A|---------------------10-10-10-10-12-12-12-12--|
E|----------------------------------------------|


And all this...

G|-11-11-11-11-7-7-7-7--------------------------|
D|-12-12-12-12-9-9-9-9--9--9--9-9--9-9-9-9------|  x1
A|---------------------10-10-10-10-7-7-7-7------|
E|----------------------------------------------|

G|-11-11-11-11-7-7-7-7--------------------------|
D|-12-12-12-12-9-9-9-9--9--9--9-9--11-11-11-11--|  x2
A|---------------------10-10-10-10-12-12-12-12--|
E|----------------------------------------------|

So crazy Billy Jay Jones...

G|-11-----7-----------------|
D|-12-----9----9-----11-----|    x2
A|-------------10----12-----|
E|--------------------------|

You said was just a loan...

G|-11-11-11-11-7-7-7-7--------------------------|
D|-12-12-12-12-9-9-9-9--9--9--9-9--11-11-11-11--|  x1
A|---------------------10-10-10-10-12-12-12-12--|
E|----------------------------------------------|

whiff of dadís cologne...

[ Tab from: https://www.guitartabs.cc/tabs/j/jamie_t/back_in_the_game_btab.html ]
G|-11-11-11-11-7-7-7-7-----------------------------------------|
D|-12-12-12-12-9-9-9-9--9--9--9-9--9-9-9-9-9-9-9-9-9--9--9--9--|   x1
A|---------------------10-10-10-10-7-7-7-7-7-7-7-7-10-10-10-10-|
E|-------------------------------------------------------------|

Chorus

G|-2-2-2-2--4-4-4-4--7-7-7-7-7-7-|
D|-0-0-0-0--2-2-2-2--5-5-5-5-5-5-|    x4
A|-------------------------------|
E|-------------------------------|

G|---------------------------------------|
D|----12-10-----12-10-----12-10----------|  x4
A|-----------10--------12----------------|
E|-10----------------------------10-10---|

With a tainted brain...

G|-11-----7-----------------|
D|-12-----9----9-----11-----|    x2
A|-------------10----12-----|
E|--------------------------|

With bother boy blues...

G|-11-11-11-11-7-7-7-7--------------------------|
D|-12-12-12-12-9-9-9-9--9--9--9-9--11-11-11-11--|  x1
A|---------------------10-10-10-10-12-12-12-12--|
E|----------------------------------------------|

And talk like you do...

G|-11-11-11-11-7-7-7-7---------------------------------------------|
D|-12-12-12-12-9-9-9-9--9--9--9-9--9-9-9-9-11-11-11-11-12-12-12-12-|
A|---------------------10-10-10-10-7-7-7-7-9--9--9ó-9--10-10-10-10-|
E|-----------------------------------------------------------------|

Chorus

G|-2-2-2-2--4-4-4-4--7-7-7-7-7-7-|
D|-0-0-0-0--2-2-2-2--5-5-5-5-5-5-|    x6
A|-------------------------------|
E|-------------------------------|

G|-2-
D|-0-  end
A|---
E|---

by Dave xxX