Jam - Precious Chords & Tabs

 

Precious Chords & Tabs

Jam Chords & Tabs

Version: 1 Type: Bass Tab

Precious Bass Tab

This is the main riff

G|------------------------------------------|
D|--------------2-0-------------------------|
A|--0-1-333-0-3----0h2-222-0-2--------------|
E|------------------------------------------|
[ Tab from: https://www.guitartabs.cc/tabs/j/jam/precious_btab.html ]
Outro
G|----------------------------------------------------------------------|
D|------------------------------2-0------------------------2-0----------|
A|--5-55-5--4-4-4---0-1-333-0-3----02-222-0-2--0-1-333-0-3----02-222-02-|
E|----------------------------------------------------------------------|

 --------------------------------------------|
 ---------------7-7-7-7-7-7-7/12-------------|
 --5-55-5--4-4-4-----------------------------|
 --------------------------------------------|

Back to main riff.

Itís an easy song .I let you figure out the timing of everything.