Jacks Mannequin - Crashin Chords & Tabs

 

Crashin Chords & Tabs

Jacks Mannequin Chords & Tabs

Version: 4 Type: Tab

Crashin Tab

Iíve had a go at working out the chords on this song by 
listening to both the piano and bass. The guitar doesnít 
actually play this, but I wanted to work something out so 
I could play along to the whole song (so make up your own
rhythm of which to play the chords). Iíve also tabbed out
the riffs that the guitar actually does play throughout 
the song. 

Enjoy!  (P.S. notes marked in () are optional)


== Jackís Mannequin Ė Crashin ==



Intro riff (0:00)

e|-------------------------------------------------------------|
B|-------------------------------------------------------------|
G|-9--8-----6--8-----6--8--------------9--8-----6--8-----6-----|
D|-------9--------9--------9--8--------------9--------9--------|
A|-------------------------------(7)---------------------------|
E|-------------------------------------------------------------|


e|--------------------------------------------------------|
B|-------------------------11~----------------------------|
G|-9--8-----6--8-----6--8---------11--9--8----6--8--------|
D|-------9--------9------------------------9--------8-----|
A|--------------------------------------------------------|
E|--------------------------------------------------------|

Intro chords (0:00) 
(Note: The G# and F# can be played either as the higher octave 
displayed here, or as the lower octave which is included in the
rest of the tab. Just play which octave you prefer)

e|-------------------|
B|-------------------|
G|-9-------13---11---|
D|-9---9---13---11---|  x3
A|-7---9---11---9----|
E|-----7-------------|

e|-------------------|
B|-------------------|
G|-9-------11---11---|
D|-9---9---11---11---|  
A|-7---9---9----9----|
E|-----7-------------|


Verse

e|-----------------------------------|
B|-----------------------------------|
G|-9------------------9-------11--11-|
D|-9---9---6---4------9---9---11--11-|
A|-7---9---6---4------7---9---9---9--|
E|-----7---4---2----------7----------|

e|-----------------------------------|
B|-----------------------------------|
G|-9-----------4---------------------|
D|-9-----------4------4-------4------|
A|-7-----(6)(4)2------4-------4------|
E|--------------------2-------2------|


Pre-chorus (0:40)

[Chords and fill] 
e|----------------------------------------|
B|----------------------------------------|
G|-4-------4h6-4h6-4h6-4h6-4h6-4h6-4h6-4h6|
D|-4--------------------------------------|
A|-2--------------------------------------|
E|----------------------------------------|

Verse (0:45)

Riff

e|------------------------------|
B|------------------------11~---|
G|-9--8----6--8ó6---------------|
D|-------9----------------------|
A|------------------------------|
E|------------------------------|

Chords

e|-----------------|
B|-----------------|
G|-9---------------|
D|-9---9---4---4---|
A|-7---9---4---4---|
E|-----7---2---2---|

(0:49)
e|-----------------------------------|
B|-----------------------------------|
G|-9------------------9-------11--11-|
D|-9---9---6---4------9---9---11--11-|
A|-7---9---6---4------7---9---9---9--|
E|-----7---4---2----------7----------|

Guitar fill (0:57)

e|-----------|
B|-12p11~----|
G|-----------|
D|-----------|
A|-----------|
E|-----------|


Chords (0:59)

e|-----------------------------------|
B|-----------------------------------|
G|-9-----------4---------------------|
D|-9-----------4------4-------4------|
A|-7-----(6)(4)2------4-------4------|
E|--------------------2-------2------|


Chorus

e|------------------------------------------|
B|------------------------------------------|
G|-8---9---11--13-11-8---9-11/(13/11)----13-|
D|-9---9---11--13-11-9---9ó11/(13/11)----13-|
A|-6---7---9---11-9--6---7--9/(11/9 )----11-|
E|(7)---------------(7)---------------------|

Riff (1:19)

e|-----------------------------|
B|-----------------------------|
G|-9--8----6--8----6-8---------|
D|-------9------9--------9-8---|
A|-----------------------------|
E|-----------------------------|

Chords

e|------------------|
B|------------------|
G|-9----------------|
D|-9---9---6---4----|
A|-7---9---6---4----|
E|-----7---4---2----|
[ Tab from: https://www.guitartabs.cc/tabs/j/jacks_mannequin/crashin_tab_ver_4.html ]
e|---------------------------|
B|--------11h12p11-----------|
G|-4---------------11-----11-|
D|-4-------------------13----|
A|-2-------------------------|
E|---------------------------|

Verse

e|-----------------------------------|
B|-----------------------------------|
G|-9------------------9-------11--11-|
D|-9---9---6---4------9---9---11--11-|
A|-7---9---6---4------7---9---9---9--|
E|-----7---4---2----------7----------|

e|-----------------------------------|
B|-----------------------------------|
G|-9-----------4---------------------|
D|-9-----------4------4-------4------|
A|-7-----(6)(4)2------4-------4------|
E|--------------------2-------2------|


Guitar fill (1:44)

e|-----------------------------------|
B|-4h5-4h5-4h5-4h5-4h5-4h5-4h5-4h5---|
G|-----------------------------------|
D|-----------------------------------| x2
A|-----------------------------------|
E|-----------------------------------|


[Repeat] Chorus


Bridge

e|-------------------------------------------------|
B|-14-14-14-14-12-12-12-12-11-11-12-11-12-11-------|
G|-------------------------------------------13-11-|
D|-------------------------------------------------|
A|-------------------------------------------------|
E|-------------------------------------------------|

e|-------------------------------------------------|
B|-14-14-14-14-12-12-12-12-------------------------|
G|-------------------------11-11-11-11-13-11-11-11-|
D|-------------------------------------------------|
A|-------------------------------------------------|
E|-------------------------------------------------|

Piano solo chords

e|------------------------------------|
B|------------------------------------|
G|-9------------------9---------------|
D|-9---9---6---2------9---9---6---4---|
A|-7---9---6---2------7---9---6---4---|
E|-----7---4---0----------7---4---2---|

Riff (2:28) [Listen carefully to the rhythm]

e|-------------------------------------|
B|-----7------------------------5------|
G|-6h8---8p6---6h8-6----6---6h8----8/4-|
D|-----------9--------9---9------------|
A|-------------------------------------|
E|-------------------------------------|

Pre-chorus

e|-----------------------------------|
B|-----------------------------------|
G|-4--------13---11--4-------4-------|
D|-4--------13---11--4-------4-------|
A|-2--------11---9---2-------2-------|
E|-----------------------------------|


Chorus 

[The last chorus is a variation]

e|-------------------------------------------|
B|-------------------------------------------|
G|-9------------------9---9---11-13-11--13---|
D|-9---9---6---4------9---9---11-13-11--13---|  x2
A|-7---9---6---4------6---7----9/11/9---11---|
E|-----7---4---2-----------------------------|

[Repeat] Intro riff (3:02)

Chords (3:02)

e|-------------------|
B|-------------------|
G|-9-------13---11---|
D|-9---9---13---11---|  x4
A|-7---9---11---9----|
E|-----7-------------|

Riff (3:22)

e|--------------------------------------|
B|--------------------------------------|
G|-------8--------8--------8------------|
D|-9--9-9---9--9-9---9--9-9--8-8-9-9/11-|  x2
A|--------------------------------------|
E|--------------------------------------|

e|---------------------------------------------|
B|--7-7-7-7-7---------------7-7-7-7-7----------|
G|-------------8--6--------------------8--6--8-|
D|-------------------9--9----------------------|  x2
A|---------------------------------------------|
E|---------------------------------------------|

e|--------------------------------------|
B|--------------------------------------|
G|-------8--------8--------8------------|
D|-9--9-9---9--9-9---9--9-9--8-8-9-9/11-| 
A|--------------------------------------|
E|--------------------------------------|

Outro riff

e|--------------------------------------|
B|--------------------------------------|
G|--------11---8h9-8-8--------8h9-------|
D|-9h11-9----9---------9h11-9-----------|  x2
A|--------------------------------------|
E|--------------------------------------|

e|--------------------------------------|
B|--------------------------------------|
G|-------8--------8--------8------------|
D|-9--9-9---9--9-9---9--9-9--8-8-9-9/11-|  
A|--------------------------------------|
E|--------------------------------------|

e|--------------------|
B|---0----0---0---0---|
G|-------11---9---8---|
D|-9---9----9---9-----|  [Repeat till fade]
A|--------------------|
E|--------------------|


Please rate and comment!