Jack Penate - Torn On The Platform Chords & Tabs

 

Torn On The Platform Chords & Tabs

Jack Penate Chords & Tabs

Version: 1 Type: Tab

Torn On The Platform Tab

   
-------------------------------------------------------------------------------
			Torn on the platform  Jack Penate
-------------------------------------------------------------------------------
Tabbed by: James Craig
Email:craigysr8@hotmail.com

Not totally sure about this, but it sounded right when I played it,
Please correct if necessary.

Tuning: standard


     A    Cm#   D     E
e|---5-----4-----5-----7---------------------------------------------------|
B|---5-----5-----7-----9---------------------------------------------------|
G|---6-----6-----7-----9---------------------------------------------------|
D|---7-----6-----7-----9---------------------------------------------------|
A|---7-----4-----5-----7---------------------------------------------------|
E|---5---------------------------------------------------------------------|
     
Intro  strum once

e|--5----------------4-----------------5---------------7-------------------|
B|--5----------------5-----------------7---------------9-------------------|
G|--6----------------6-----------------7---------------9-------------------|
D|--7----------------6-----------------7---------------9-------------------|
A|--7----------------4-----------------5---------------7-------------------|
E|--5----------------------------------------------------------------------|

    Once more just be-fore im lea-ving torn on the plat-form 

e|--5----------------4-----------------5----------------7------------------|
B|--5----------------5-----------------7----------------9------------------|
G|--6----------------6-----------------7----------------9------------------|
D|--7----------------6-----------------7----------------9------------------|
A|--7----------------4-----------------5----------------7------------------|
E|--5----------------------------------------------------------------------|

    Once more just be-fore im lea-ving torn on the plat-form

e|--5----------------4-----------------5----------------7------------------|
B|--5----------------5-----------------7----------------9------------------|
G|--6----------------6-----------------7----------------9------------------|
D|--7----------------6-----------------7----------------9------------------|
A|--7----------------4-----------------5----------------7------------------|
E|--5----------------------------------------------------------------------|

   Cos I miss you and I love you but I know its over for know


e|--5--------------------------4--------5---------------------7------------|
B|--5--------------------------5--------7---------------------9------------|
G|--6--------------------------6--------7---------------------9-let ring---|
D|--7--------------------------6--------7---------------------9------------|
A|--7--------------------------4--------5---------------------7------------|
E|--5----------------------------------------------------------------------|

 Cos I miss you ooooh how I miss you, your not my girl youre my pal?



Pre verse:

[ Tab from: https://www.guitartabs.cc/tabs/j/jack_penate/torn_on_the_platform_tab.html ]
e|--5------4------5---------7------|---5-----4----5----7----7--------------|
B|--5------5------7---------9------|---5-----5----7----9----10-------------|
G|--6------6------7---------9------|---6-----6----7----9----9--------------|
D|--7-x4---6x4---7---x4----9x4---|---7x4--6-x4-7-x4-9-x8-9-x8-----------|
A|--7------4------5---------7------|---7-----4----5----7----7--------------|
E|--5------------------------------|---5-----------------------------------|
	X2	on 2nd time 


Verse:

Upward strumming pattern ^

e|------5------------4---------5---------7-------------------------------|
B|------5------------5---------7---------9-------------------------------|
G|------6------------6---------7---------9-------------------------------|
D|------7x4---------6x4------7x4------9x4----------------------------|
A|------7----------4-4-------5-5-------7-7-------------------------------|
E|----5-5----------------------------------------------------------------|
       ^^            ^^       ^^        ^^

BRIGDE:


A 

Cos my eyes eyes eyes 

Cm#

Are not dry dry dry 

D 

As I realise lise lise 

E 

That in a few minutes the train will be gone 

A

Sighs sighs sighs 

Cm#

City flys flys flys 

D

Wonder why why why

E

would anyone want to leave where I come from 






Chorus:

A    Cm#    D       E
Im torn on the platform ooooh
A    Cm#    D       E
 torn on the platform oooooh

A    Cm#    D       E
 torn on the platform ooooh
A    Cm#    D       E
 torn on the platform ooooh


e|---7-------5------4-----2-----------------------------------------------|
B|---9-------7------5-----3-----------------------------------------------|
G|---9-------7------6-----4------------x4---------------------------------|
D|---9-------7------6-----4-----------------------------------------------|
A|---7-------5------4-----2-----------------------------------------------|
E|------------------------------------------------------------------------|
    Oooh    oooh   oooh   oooh


Pre Verse

e|--5------4------5---------7------|---5-----4----5----7----7--------------|
B|--5------5------7---------9------|---5-----5----7----9----10-------------|
G|--6------6------7---------9------|---6-----6----7----9----9--------------|
D|--7-x4---6x4---7---x4----9x4---|---7x4--6-x4-7-x4-9-x8-9-x8-----------|
A|--7------4------5---------7------|---7-----4----5----7----7--------------|
E|--5------------------------------|---5-----------------------------------|
	X2	on 2nd time 

Verse:
Bridge
chorus
verse
chorus
ending

Ending:
	
e|---7-------5------4-----2-----------------------5------------------------|
B|---9-------7------5-----3-----------------------5------------------------|
G|---9-------7------6-----4------------x4---------6------------------------|
D|---9-------7------6-----4-----------------------7------------------------|
A|---7-------5------4-----2-----------------------7------------------------|
E|------------------------------------------------5------------------------|
    Oooh    oooh   oooh   oooh                  End with 



Please rate this tab. Enjoy 




===============================================================================