Jack Penate - Spit At Stars Chords & Tabs

 

Spit At Stars Chords & Tabs

Jack Penate Chords & Tabs

Version: 1 Type: Bass Tab

Spit At Stars Bass Tab

   
Ahoy thar! =]
Think we all love Jack Penate by now, awesome artist
And Spit at Stars is awesome song X]
If you know your walking basslines, then this is easy peasy

Jack Penate - Spit at Stars

Main Riff (0:10)
G-----------|
D--------4--|
A----4-7----|
E--5--------|
Played continuously

NOTE: Pause on the 5 when gets to 0:18 then continuously play
through the verse

Pre Chorus (0:28)
G-----------------------------------|
D-----------------------------------|
A-----------------------------------| X2
Eó2--2--2/7--7--7/2--2--2/7--7--7---|

Chorus (0:37)
G--------------------------------------|
D--------------------------------------|
A-----------4-4--5-5-7--7~---7-5-4-----| X3
E-5-5--7-7-------------------------7---|

Back to main riff (0:51)
G-----------|
D--------4--|
A----4-7----|
E--5--------|

Pre Chorus (1:06)
G-----------------------------------|
D-----------------------------------|
A-----------------------------------| X2
Eó2--2--2/7--7--7/2--2--2/7--7--7---|
[ Tab from: https://www.guitartabs.cc/tabs/j/jack_penate/spit_at_stars_btab.html ]
Chorus (1:15)
G--------------------------------------|
D--------------------------------------|
A-----------4-4--5-5-7--7~---7-5-4-----| X3
E-5-5--7-7-------------------------7---|

After chorus, main riff again (1:29)
G-----------|
D--------4--|
A----4-7----| X4
E--5--------|

Then this is played (1:33)
G---------------------------|
D---------------------------|
A-5-5----7-7----4-4----5-5--| X4
E---------------------------|

After that...(1:51)
G------------------|
D------------------|
A-5555555555555555-|
E------------------|

Main Riff (1:55)
G-----------|
D--------4--|
A----4-7----| X4
E--5--------|

Last Pre Chorus (2:00)
G-----------------------------------|
D-----------------------------------|
A-----------------------------------| X2
Eó2--2--2/7--7--7/2--2--2/7--7--7---|

Then Chorus (2:09)
G--------------------------------------|
D--------------------------------------|
A-----------4-4--5-5-7--7~---7-5-4-----| X3
E-5-5--7-7-------------------------7---|

Last Main Riff (2:23)
G-----------|
D--------4--|
A----4-7----| X7 
E--5--------|

Then End with...(2:31)
G-----------|
D-----------|
A-7-5-4-----| 
E-------7-5-|

Wooh lah! =] Please rate