Jack Off Jill - Vivica Chords & Tabs

 

Vivica Chords & Tabs

Jack Off Jill Chords & Tabs

Version: 2 Type: Bass Tab

Vivica Bass Tab

   
Tuning: Standard (E A D G)


Intro & Verse:
G|---------------------------------------------------------------|
D|---------------------------------------------------------------|
A|5(5)-5-5--8-7--3-(3)-3--3-3-3---------------------------------|
E|--------------------------------5-(5)-5-5-3h5-5-(5)-5-5-3h5--|


Last time verse:
G|----------------------------------------------------------------|
D|----------------------------------------------------------------|
A|5(5)-5-5--8-7--3-(3)-3--3-3-3--2-2-2-2-2-2-2-2-2-2-2-2-2-2-2-2-|
E|----------------------------------------------------------------|

[ Tab from: https://www.guitartabs.cc/tabs/j/jack_off_jill/vivica_btab_ver_2.html ]
Chorus:
G|---------------------------------------------------|
D|---------------------------------------------------|
A|---------------------------------------------------|
E|-5-5-5-5-51h3-3-3-3-3--1h3-3-3-3-3--1-1-1-5-53h5-|


Bridge:
G|--------------------------------------------|
D|--------------------------------------------|
A|-8---8-8--7---7-7---5---5-53h5--5--5-53h5-|
E|--------------------------------------------|	

G|----------------------------------------------|			
D|----------------------------------------------|
A|--8---8-8---10---10--10---5-5-3h5--5--5-5-3h5-|				
E|----------------------------------------------|


Last tone:
G|-----|
D|-----|
A|--5--|
E|-----|