Jack Johnson - No Other Way Chords & Tabs

 

No Other Way Chords & Tabs

Jack Johnson Chords & Tabs

Version: 7 Type: Tab

No Other Way Tab

No Other Way Tab by Jack Johnson,
L1am_163@hotmail.com
All fret numbers relative to capo.

Guitar 1 Drop D tuning, capo on 3rd fret.
Guitar 2 capo on 3rd fret(standard tuning if you want, you donít use the bottom e string anyway)
  X 3 then into...
 |Guitar 2                  ||	   |
e|--------------------------||      -- |
B|--------7---5/3-----------||      -- |
G|----7---------------------||      -- |
D|--------------------------||      -- |
A|--------------------------||      -- |
D|------------------------------------ |     /


...this!
   Guitar 1
e|-----------------------/--------------------------|
B|-----------------------/--------------------------|
G|-----------------------/--------------------------|
D|------2----2----2------/-----5----5----5----------|
A|----2----2----2----2-2-/---5----5----5----5-5-----|
D|---2-2----2----2----2--/--5-5----5----5----5------|
 |                                                  |
 |Guitar 2 (1st chorus only)                        |
e|--------------------------------------------------|
B|----3h55-5/77-7/88-8/10---12--10--8---7ó5h7-7\----|
G|--------------------------------------------------|
D|--------------------------------------------------|
A|--------------------------------------------------|
D|--------------------------------------------------|
 |(guitar 2 play this for 2nd chorus instead)       |
B|----3h55-5/77-7/88-8/10---12--10--8--10x--12--14--|

Bridge
Guitar 1 (guitar 2 mute)
e|-----------------------------------------------------|
B|-----------------------------------------------------|
G|------0------------------------7---------------------|
D|---7/9--9-9-----7\4---------7/9--9-9------7\4--------|
A|-------------7/9-----5-5--------------7/9------5-5---|
D|-0-------0--0---------0---0-------0--0----------0----|

e|------------------------------------------------------|
B|------------------------------------------------------|
G|------9\7-----------------------7---------------------|
D|---7/9---9-9-----7\4---------7/9--9-9------7\4--------|
A|--------------7/9-----5-5--------------7/9------5-5---|
D|-0--------0--0---------0--0--------0--0----------0----|

Verse 3
  Guitar 1
e|----------------------------------------------------|
B|----------------------------------------------------|
G|----------------------------------------------------|
D|----------4----4----4\2-0--------5----5----5--------|
A|--------5----5----5-------0----5----5----5----5-5---|
D|-------0-0----0----0-----0----5-5----5----5----5----|
 |                                                    |
 |Guitar 2                                            |
e|----------2-----------------------------------------|
B|----------------------------------------------------|
G|---2-2h4--------------------------------------------|
D|----------------------------------------------------|
A|----------------------------------------------------|
D|----------------------------------------------------|
[ Tab from: https://www.guitartabs.cc/tabs/j/jack_johnson/no_other_way_tab_ver_7.html ]
  Guitar 1
e|-----------------------/--------------------------|
B|-----------------------/--------------------------|
G|-----------------------/--------------------------|
D|------2----2----2------/-----5----5----5----------|
A|----2----2----2----2-2-/---5----5----5----5-5-----|
D|---2-2----2----2----2--/--5-5----5----5----5------|
 |                                                  |
 |Guitar 2 (3rd verse only)                         |
e|--------------------------------------------------|
B|---7/8--------------------------------------------|
G|--------------------------------------------------|
D|--------------------------------------------------|
A|--------------------------------------------------|
D|--------------------------------------------------|


Verse 4
  Guitar 1
e|----------------------------------------------------|
B|----------------------------------------------------|
G|----------------------------------------------------|
D|----------4----4----4\2-0--------5----5----5--------|
A|--------5----5----5-------0----5----5----5----5-5---|
D|-------0-0----0----0-----0----5-5----5----5----5----|
 |                                                    |
 |Guitar 2 (4th verse only)                           |
e|----------------------------------------------------|
B|----------------------------------------------------|
G|--------5/7---------------------5\3-----------------|
D|----------------------------------------------------|
A|----------------------------------------------------|
D|----------------------------------------------------|

  Guitar 1
e|-----------------------/--------------------------|
B|-----------------------/--------------------------|
G|-----------------------/--------------------------|
D|------2----2----2------/-----5----5----5----------|
A|----2----2----2----2-2-/---5----5----5----5-5-----|
D|---2-2----2----2----2--/--5-5----5----5----5------|
 |                                                  |
 |Guitar 2(4th verse only)                          |
e|--------------------------------------------------|
B|---7/8--------------------------------------------|
G|----------------------------5\3-------------------|
D|--------------------------------------------------|
A|--------------------------------------------------|
D|--------------------------------------------------|

<2nd Chorus>

Then..

Bridge (to finish)
Guitar 1 (guitar 2 mute)
e|-----------------------------------------------------|
B|-----------------------------------------------------|
G|------0------------------------7---------------------|
D|---7/9--9-9-----7\4---------7/9--9-9------7\4--------|
A|-------------7/9-----5-5--------------7/9------5-5---|
D|-0-------0--0---------0---0-------0--0----------0----|

Guitar 1 (guitar 2 mute)
e|------------------------------------------------------|
B|------------------------------------------------------|
G|------0-------------------------7---------------------|
D|---7/9---9-9-----7\4---------7/9--9-9------7\4----4---|
A|--------------7/9-----5-5--------------7/9------5-----|
D|-0--------0--0---------0--0--------0--0----------0-0--|

Verse1:
when your mind is a mess
so is mine
i can't sleep
cause it hurts when i think
my thoughts aren't at peace
with the plans that we make
chances we take
they're not yours and not mine
there's waves that can break

Verse 2:
all the words that we said
and the words that we mean
words can fall short
can't see the unseen
cause the world is awake
for somebody's sake now
please close your eyes woman
please get some sleep

Chorus:
and know that if i knew
all of the answers i would
not hold them from you
know all the things that i'd know
cause we told each other
there is no other way

Verse 3:
well too much silence can be misleading
you're drifting, i can hear it
in the way that your breathing
we don't really need to find reason
cause out the same door
that it came, well it's leaving,c its leaving

Verse 4:
leaving like a day that's done
and part of a season
resolve is just a concept
that's as dead as the leaves
but at least we can sleep
its all that we need
when we wake we will find
our minds will be free to go to sleep