Jace Everett - Bad Things Chords & Tabs

 

Bad Things Chords & Tabs

Jace Everett Chords & Tabs

Version: 2 Type: Bass Tab

Bad Things Bass Tab

Jace Everett  Bad Things

Tabbed by chokeslam512

Intro

G--------------------|----------------------|--------------------|----------------------|
D--------------------|----------------------|--------------------|----------------------|
A--------------------|----------------------|--------------------|----------------------|
E--------------------|----------------------|5~~~0~~~7~~~-0~~~~~~|7~~~0~~~~~~-----------|

Verse 1: (x2)

G--------------------|----------------------|--------------------|----------------------|
D-----------1-4-1-2--|----------------------|-----------1-4-1-2--|----------------------|
A-----2---2----------|-----2-3-2-----2-3-2--|-----2---2----------|-----2-3-2-----2-3-2--|
E-0-3---3------------|-3---------0-3--------|-0-3---3------------|-3---------0-3--------|

Chorus 1

G----------------------------|----------------------------|----------------------------|
D-----2--------------4-------|-2--------------------------|----------------------------|
A-0-3---3-----2---2-5----5---|---3-2--------2-3-2-0-------|-----2-3-2------2-3-2-------|
E---------0-3---3------------|-------3-0-3----------3-2---|-0-3--------0-3-------------|

Solo 1

G-----------------------------|----------------------------------|
D------2-----------------4----|-------9-----------9--------------|
A--0-3---3-----2---2--5----5--|-7--10---10--7--10---10-----------|
E----------0-3---3------------|------------------------7-5-3-2-0-|

G----------------------------|
D----------------------------|
A-----2-3-2------2-3-2-------|
E-0-3--------0-3-------0~~~~-|

Interlude
[ Tab from: https://www.guitartabs.cc/tabs/j/jace_everett/bad_things_btab_ver_2.html ]
G----------------------------|-9-11-12-16-12-14-11-12~~~~-|----------------------------|
D----------------------------|----------------------------|-10-9-7---------------------|
A----------------------------|----------------------------|--------10-9-7-9------------|
E----------------------------|----------------------------|----------------------------|

Chorus 2

G----------------------------|----------------------------|----------------------------|
D-----2--------------4-------|-2--------------------------|----------------------------|
A-0-3---3-----2---2-5----5---|---3-2--------2-3-2-0-------|-----2-3-2------2-3-2-------|
E---------0-3---3------------|-------3-0-3----------3-2---|-0-3--------0-3-------------|

G--------------------|----------------------------|
D--------------------|----------------------------|
A------2-3-2-0-------|-----2-3-2------2-3-2-------|
E-0-3----------3-2---|-0-3--------0-3-------------|

Solo 2 (x2) (Played an octave higher but this sounds better in my opinion)

G--------------------|----------------------------|
D--------------------|----------------------------|
A------2-3-2-0-------|-----2-3-2------2-3-2-------|
E-0-3----------3-2---|-0-3--------0-3-------------|

Final Chorus
G----------------------------|----------------------------|----------------------------|
D-----2--------------4-------|-2--------------------------|----------------------------|
A-0-3---3-----2---2-5----5---|---3-2--------2-3-2-0-------|-----2-3-2------2-3-2-------|
E---------0-3---3------------|-------3-0-3----------3-2---|-0-3--------0-3-------------|



G-------------------|----------------------|
D-------------------|----------------------|
A------2-3-2-0------|-----2-3-2------------|
E-0-3----------3-2--|-0-3--------0-3-0~~~~~|