Itchyworms - Beer Chords & Tabs

 

Beer Chords & Tabs

Itchyworms Chords & Tabs

Version: 6 Type: Tab

Beer Tab

   
BEER by ITCHYWORMS
Tabbed by: Rakizta_Ralph
Email: fast_break20@yahoo.com.ph (friendster.com)

INTRO:

e|---------------------5/7------------7-7------------------------------------|
B|--------3-5/7------5----------3-5/7-----8-8-----7-10-12-----10-10/12-10-9--|
G|--2-2/4-------5-4~-------5-4~---------------9-8---------12~----------------|
D|---------------------------------------------------------------------------|
A|---------------------------------------------------------------------------|
E|---------------------------------------------------------------------------|

ADLIB: 2min:13sec
e|---------------------5/7------------7-7------------------------------------|
B|--------3-5/7------5----------3-5/7-----8-8-----7-10-12-----10-10/12-10-9--|
G|--2-2/4-------5-4~-------5-4~---------------9-8---------12~----------------|
D|---------------------------------------------------------------------------|
A|---------------------------------------------------------------------------|
E|---------------------------------------------------------------------------|
[ Tab from: https://www.guitartabs.cc/tabs/i/itchyworms/beer_tab_ver_6.html ]
ADLIB: 3min:55sec
e|--3-x------------------------------14-15-15/17-15-14------------------------|
B|--3-x---------8-10b-10b-10-8---15b-------------------17-15~----------15-----|
G|--4-x-----7h9----------------9------------------------------14-14h16----16--|
D|--5-x7h9-------------------------------------------------------------------|
A|--5-x-----------------------------------------------------------------------|
E|--3-x-----------------------------------------------------------------------|

e|----------------------------------------------------------------------------|
B|--15b-15--------------------------------------------------------------------|
G|---------14b-14-12-14b---14b-14-14-12-12-------12-14b-14-14-12-12-------12--|
D|-----------------------------------------14-14--------------------14-14-----|
A|----------------------------------------------------------------------------|
E|----------------------------------------------------------------------------|

e|-----------------------------|
B|-----------------------------|
G|--14b-14-12-14b-14-14b-16b\--|
D|-----------------------------|
A|-----------------------------|
E|-----------------------------|

ADLIB: 5min:30sec
e|-------------------------------------------|
B|-----------------------15-17-17b-15-17-15--|
G|------7-9b-7-9-7----16---------------------|
D|--7h9--------------------------------------|
A|-------------------------------------------|
E|-------------------------------------------|

ADLIB: 5min:45sec
e|-----------------5/7------------7-7----------------------|
B|----3-5/7------5----------3-5/7-----8-8-----7-10-12------|
G|--4-------5-4~-------5-4~---------------9-8---------12~--|
D|---------------------------------------------------------|
A|---------------------------------------------------------|
E|---------------------------------------------------------|
| /  slide up
| \  slide down
| h  hammer-on
| p  pull-off
| ~  vibrato
| +  harmonic
| x  Mute note
===============================================================================