Iron Maiden - Powerslave Chords & Tabs

 

Powerslave Chords & Tabs

Iron Maiden Chords & Tabs

Version: 7 Type: Tab

Powerslave Tab

Iron Maiden - Dave Murray - Powerslave

Tabbed by Gaby

Watch this video http://www.youtube.com/watch?v=IPvcuXAPJHY&feature=related

The video is the solo at normal speed then slowed down and split into parts 4 easy learning

If you find any mistakes please let me know but watch the video

Shift down one string for the parts starting with *** if playing an acoustic

e|---------------------------------------------------------------------------|
B|---------------------------------------------------------------------------|
G|--9/11~~~--9h10p9\7---6-7-6h7p6\4\2/4~~~---6-7/9-9^10--7h9p7-6h7p6\4~~~----|
D|---------------------------------------------------------------------------|
A|---------------------------------------------------------------------------|
E|---------------------------------------------------------------------------|


e|----------------------------------------------------------------------------------|
B|------------------------10/12~--10h12p10~~--7-10-7--------------------------------|
G|-----------7-9^10--7~~~----------------------------97h9p7\6h7p6\4/6\4~~----------|
D|-------7-9------------------------------------------------------------------------|
A|---7/9----------------------------------------------------------------------------|
E|----------------------------------------------------------------------------------|


e|-----------------------9-10-9h10p9----------9-10-12-10-9h10p9--------------|
B|------------------10-12------------12-10-12-------------------10-----------|
G|---------7-9/11-12-----------------------------------------------9\7-9^10--|
D|------7-9------------------------------------------------------------------|
A|---7-9---------------------------------------------------------------------|
E|---------------------------------------------------------------------------|

e|------------------|
B|------------------|
G|--7h9p7\6h7p6\4---|
D|------------------|
A|------------------|
E|------------------|


e|---------------------10-9h10p9------12^13--12^13--10-9h10p9-----------|
B|---------------10-12-----------12-10------------------------12~~~-----|
G|--------7-9/11--------------------------------------------------------|
D|-----7-9--------------------------------------------------------------|
A|--7/9-----------------------------------------------------------------|
E|----------------------------------------------------------------------|

[ Tab from: https://www.guitartabs.cc/tabs/i/iron_maiden/powerslave_tab_ver_7.html ]
e|-----------9-10-12-10-9h10p9----10-9h10p9----------------12-14-15-17--(-17^18-)x4-----|
B|-----10-12-------------------12-----------12-10-12-14-15------------------------------|
G|-9-11---------------------------------------------------------------------------------|
D|--------------------------------------------------------------------------------------|
A|--------------------------------------------------------------------------------------|
E|--------------------------------------------------------------------------------------|


e|-17-15-14h15p14-----------------------------------------------------------------------|
B|----------------17-15-14-15-17-15-14h15p14--------------------------------------------|
G|-------------------------------------------17-15-14h15p14\12\10-----------------------|
D|----------------------------------------------------------------11-10-9\7-9-7-9-7-----|
A|----------------------------------------------------------------------------------9~~~|
E|--------------------------------------------------------------------------------------|



*** e|-----------------------------------------------------------------------------|
    B|-----------------------------------------------------------------------------|
    G|--7-10------7-10-7---------------10^11-10^11-\--------------7^8^7^8-7-6-7----|
    D|-------9^10--------10-9-7-9-\------------------9^10-p7-9~~~---------------7--|
    A|-----------------------------------------------------------------------------|
    E|-----------------------------------------------------------------------------|

*** e|--------------       --------------------------------|
    B|--------------       --------------------------------|
    G|------7--10-7-       ---7-10-7--10^11^11.5^10~~~\----|
    D|--9^10--------  X5   --------------------------------|
    A|--------------       --------------------------------|
    E|--------------       --------------------------------|

e|--2h3p2-----------2h3p2-----------2h3p2-----------2h3p2-----2h3p2--------|
B|-------h3p0h3p0h3------h3p0h3p0h3------h3p0h3p0h3-------h3p0------h3~~~--|
G|-------------------------------------------------------------------------|
D|-------------------------------------------------------------------------|
A|-------------------------------------------------------------------------|
E|-------------------------------------------------------------------------|

e|--7-8-7---7--------------------------------------|
B|--------10--10-8-7-10-8-7\5-8-7-5----------------|
G|----------------------------------7-6-7-6~~~\----|
D|-------------------------------------------------|
A|-------------------------------------------------|
E|-------------------------------------------------|

e|--10-7-10-7---7------------------------------|
B|-----------10---10-7-10-7--------------------|
G|-------------------------9-7-9-7---7-9~~~\---|
D|---------------------------------9-----------|
A|---------------------------------------------|
E|---------------------------------------------|

*** e|-----------------------------|
    B|----------------15^16~~~~\---|
    G|--13^14--15^16---------------|
    D|-----------------------------|
    A|-----------------------------|
    E|-----------------------------|