Into It Over It - Pinky Swear Chords & Tabs

 

Pinky Swear Chords & Tabs

Into It Over It Chords & Tabs

Version: 1 Type: Tab

Pinky Swear Tab

   
ARTIST: Into It. Over It.
ALBUM: 52 Weeks
SONG: Pinky Swear
TUNING: EBBEBE

Took a while to figure out, seeing as the tuning is so wacky. If you want to play the
live version, just lower each string a half step. But itís actually a really simple song
to play, and a ton of fun on acoustic. Hope you enjoy it! If you notice an error of any 
sort, just post it in the comments section and Iíll try to get to it.

There are three riffs used in the song Ė yep, only three. They are played as follows.

Riff 1

     E   E  E  E  Q    E  E     S  E.  E  E  S  E.  S  S  E
E||---------x----------x-----|---------x---------------------|
B||---------x----------x-----|---------x---------------------|
E||---------x-----7----x-----|--2h-4---x-----2h-4---4p-2p-0--|
B||-----12--x-----5----x-----|--0--L---x-----0--L---0--L--L--|
B||--9---9--x--5--5----x--0--|--0--L---x--0--0--L---0--L--L--|
E||--9---9--x--5--5----x--0--|---------x--0------------------|

Riff 2

  E   E  E  E  Q    E  E      E  E  E  E  Q    E  E
--------------------x--x---|--------x----------x------|
--------------------x--x---|-----0--x----------x------|
---------------7----x--x---|-----x--x-----7----x------|
-----12--------5----x--x---|-----2--x-----5----x------|
--9---9--x--5--5----x--x---|--2--2--x--5--5----x--x---|
--9---9--x--5--5----x--0h--|--2--2--x--5--5----x--0h--|

Riff 3
[ Tab from: https://www.guitartabs.cc/tabs/i/into_it_over_it/pinky_swear_tab.html ]
  E  E  E  E  E  E  E  E     E  E  E  E  E  E   E  E
--------------------------|---------------------------|
--------------------------|---------------------------|
-----0-----0-----0-----0--|-----0-----0-----0------0--|
--5-----4-----2-----0-----|--5-----7-----9-----14-----|
--------------------------|---------------------------|
--------------------------|---------------------------|

   E  E   E  E   E  E   E  E     W
------------------------------|-------------------|-------------------|
------------------------------|-------------------|-------------------|
------0------0------0------0--|-------------------|-------------------|
--17-----16-----14-----12-----|--9----------------|-------------------|
------------------------------|-------------------|-------------------|
------------------------------|-------------------|-------------------|

The order of the song is really simple, too.

Intro: Riff 1, Riff 1, Riff 2, Riff 1
Verse 1: Riff 1, Riff 1, Riff 2, Riff 1
Chorus: Riff 2, Riff 1, Riff 2, Riff 1
Bridge: Riff 1, Riff 1, Riff 2, Riff 1 with Riff 3 x2 over it
Verse 2: Riff 1, Riff 1, Riff 2, Riff 1
Chorus: Riff 2, Riff 1, Riff 2, Riff 1, play section twice

Thatís it!

The ďLĒ notation simply means to hold the note Ė as in, after strumming, donít mute it.
Very simple. Everything else is self explanatory (E being eighth note, h being hammer on
etc etc).

Hope you enjoy it, rate if you do, rate if you donít.