Interpol - Slow Hands Chords & Tabs

 

Slow Hands Chords & Tabs

Interpol Chords & Tabs

Version: 4 Type: Bass Tab

Slow Hands Bass Tab

   
-------------------------------------------------------------------------------
			     SLOW HANDS  Interpol
-------------------------------------------------------------------------------

Tabbed By : Joe
e-mail: joethegiant@hotmail.co.uk

Tuning: DADG (Drop D)
  Intro
G|-----------------------------7------|
D|-------------------------------7----|
A|-----------------5-5-5-5-5-5--------|
D|-5-5-5-5-5-5-5-5--------------------|
  Verse
G|---------------------------------------------------------------------------|
D|---------------------------------------------------------------------------|
A|---------------------------------------------------------------------------|
D|-9-9-9-9-9-7-7-7-5-5-5-5-5-5-5-5-7-7-7-7-7-0-0-1-2-2-2-2-2-5---5-----------|X2

G|---------------------------------------------------------------------------|
D|-----------------------------------------------5---------------5-----------|
A|-2-2-2-2-2-------2-2-2-2-5-5-5-5-7-7-7-5-7-5-7---7-7-7-5-7-5-7-------------|
D|-----------5-5-5-----------------------------------------------------------|

G|---------------------------------------------------------9-9-9-9-----------|
D|-------------------------------------------------------9-------------------|
A|-2-2-2-2-2-------2-2-2-2-5-5-5-5-7-7-7-5-7-7-7-5-7-7-7---------------------|
D|-----------5-5-5-----------------------------------------------------------|
  Break A
G|-16-16-16-16-14-14-14-14-12-12-12-12-9-9-7---------------------------------|
D|-------------------------------------------9-7-7-7-7-7-7-7-7-7-------------|
A|---------------------------------------------------------------------------|
D|---------------------------------------------------------------------------|

G|-9-9-9-9-7-7-7---------7-7-7-7-9-9-9-9-12-12-12-12---------------------------------|
D|---------------9-9-9-9-------------------------------------------------------------|
A|---------------------------------------------------0-0-0-0-0-0-0-0-5-5-5-5-5-5-4-5-|
D|-----------------------------------------------------------------------------------|
  Chorus A
G|-----------------------------------9---9---9-9-8---7---7-------------------|
D|---9---9---9-9-8---7---7---------------------------------------------------|
A|---------------------------5-5-6-7---7---7-------5---5---5-----------------|
D|-9---9---9-------7---7---7---------------------------------7-7-8-----------|
[ Tab from: https://www.guitartabs.cc/tabs/i/interpol/slow_hands_btab_ver_4.html ]
G|-----------------------------------9---9---9-9-8---7---7---7---7-------7---|
D|---9---9---9-9-8---7---7-------------------------------------------------7-|
A|---------------------------5-5-6-7---7---7-------5---5---5---5-------------|
D|-9---9---9-------7---7---7-------------------------------------------------|
  Chorus B
G|-----------------------------------9---9---9-9-8---7---7-------------------|
D|---9---9---9-9-8---7---7---------------------------------------------------|
A|---------------------------5-5-6-7---7---7-------5---5---5-----------------|
D|-9---9---9-------7---7---7---------------------------------7-7-8-----------|

G|-----------------------------------9---9---9-9-10---11--11--11--11---------|
D|---9---9---9-9-8---7---7---------------------------------------------------|
A|---------------------------5-5-6-7---7---7--------9---9---9---9------------|
D|-9---9---9-------7---7---7-------------------------------------------------|
  Break B
G|---------------------------------|
D|-9-9-9-7-9-9-9-7-9-9-9-7-9-9-9-7-|
A|---------------------------------|
D|---------------------------------|

G|---------------------------------------------------------------------------|
D|-9-9-9-9-7-7-7-7-5-5-5-5-5-5-5-6-7-7-7-7-7---------------------------------|
A|-------------------------------------------5-5-6-7-7-7-7-7-10-10-10--------|
D|---------------------------------------------------------------------------|X2

G|------------------------------------------------------------------16-------|
D|--9-9-9-9-7-7-7-7-5-5-5-5-5-5-5-6-7-7-7-7-7-9-9-12-13-14-14-14-14----14----|
A|---------------------------------------------------------------------------|
D|---------------------------------------------------------------------------|
G|-----------------------------------9---9---9-9-8---7---7-------------------|
D|---9---9---9-9-8---7---7---------------------------------------------------|
A|---------------------------5-5-6-7---7---7-------5---5---5-----------------|
D|-9---9---9-------7---7---7---------------------------------7-7-8-----------|

G|-----------------------------------9---9---9-9-10---11--11--11--11---------|
D|---9---9---9-9-8---7---7---------------------------------------------------|
A|---------------------------5-5-6-7---7---7--------9---9---9---9------------|
D|-9---9---9-------7---7---7-------------------------------------------------|

G|------------------------------9--------------------------------------------|
D|-----9--999-8-----7--------------------------------------------------------|
A|--------------------555-6-7-7---777-8-9-9-9-88-7-7-6-5---------------------|
D|-9-9----------7-7----------------------------------------------------------|

G|------------------------------9-------------79-11-11-11--------------------|
D|-----9--999-8-----7-------------------------------------11-10-9------------|
A|--------------------555-6-7-7---777-8-9-9-9--------------------------------|
D|-9-9----------7-7----------------------------------------------------------|

| /  slide up
| \  slide down
| h  hammer-on
| p  pull-off
| ~  vibrato
| +  harmonic
| x  Mute note
===============================================================================