Infected Mushroom - Dancing With Kadafi Chords & Tabs

 

Dancing With Kadafi Chords & Tabs

Infected Mushroom Chords & Tabs

Version: 2 Type: Tab

Dancing With Kadafi Tab

   
-------------------------------------------------------------------------------
			     DANCING WITH KADAFI  Infected Mushroom
-------------------------------------------------------------------------------
Tabbed by: InfectedSMG

Tuning: Standard (eBGDAE)

Although this guitar part is only used in the intro part of the song, It is one of the 
memborable parts and forms the basis for most of the melody in the song. I tabbed this 
I have been looking for a tab for a long time and couldn't find one, so i did it myself.

You will have to work out the exact timings yourself from the song.
[ Tab from: https://www.guitartabs.cc/tabs/i/infected_mushroom/dancing_with_kadafi_tab_ver_2.html ]
e|--------3-----3-----------3-----3------|
B|----0-------------0---0-------------0--|
G|------5---------5-------5---------5----|
D|---------------------------------------|
A|--0-------0-0-------0-------0-0--------|
E|---------------------------------------|

  Am


e|-------3-----3-----------------------------|
B|---0-------------0---0---6---0-1-0---0-1-0-|
G|-----5---------5-------5-------------------|
D|-3-------3-3-------0-----------------------|
A|-------------------------------------------|
E|---------------------------1-------0-------|

  F                  Dm      F       E

| /  slide up
| \  slide down
| h  hammer-on
| p  pull-off
| ~  vibrato
| +  harmonic
| x  Mute note
===============================================================================