Incubus - Black Heart Inertia Chords & Tabs

 

Black Heart Inertia Chords & Tabs

Incubus Chords & Tabs

Version: 3 Type: Tab

Black Heart Inertia Tab

   
Ambient Intro    Intro Riff (A)
e|------------------------------|
B|------------5-----------------|
G|------------x-----------------|
D|----3-----5-5-------3---------|
A|----3---------------3---------|
E|-1----1/3------1--1---1-3/5\3-|


Main Riff (B)
e|---------------------|
b|---------------------|
G|-777-----77777-------|
D|-767-----55555-------|
A|-555-7/3-33333-------|
E|-----5/1-------------|


Verse Riff (C)
e|---------------------|
b|---------------------|
G|-9-7-9-------7-7-9-7-|
D|-7-5-7-7\\3----------|
A|-------7\\3--5-5-7-5-|
E|---------------------|

(A) x4

(B) x1

(C) x8
Walking alone tonight
ĎCause Iíve only got room for two
Me and my burdened black heart
Itís all we know how to do

Yet I look for a bigger bang
Than the kind I continually see
Sick of all this inertia ow
Wonít you mend me?

(A) x4
Lover, can you help me?
Iím a child lost in the woods
A black heart pollutes me
And I think
[ Tab from: https://www.guitartabs.cc/tabs/i/incubus/black_heart_inertia_tab_ver_3.html ]
(C) x4
Youíre a mountain that Iíd like to climb
Not to conquer, but to share in the view

(B) x2

(B) x4
Pulled by a false inertia
Pushed out by circumstance
Pistol firing at my feet
Thatís coercing me to dance

(C) x4
Yet I look for a bigger bang
Than the kind Iím sorry to know.
Here I am, first foot of the climb
Watch me go.

(A) x4
Lover, can you help me?
Iím a child lost in the woods
A lit path eludes me
And I think

(C) x8
Youíre a mountain that Iíd like to climb
Not to conquer, but to share in the view
Youíre a bonfire and Iím gathered íround you
Set this old black heart inertia aflame

Send it away...

(Solo)          ...Don't know this, sorry

(C)x8
Youíre a mountain that I'd like to climb
Not to conquer, but to share in the view
Youíre a bonfire and Iím gathered íround you
Set this old black heart inertia aflame


 Asus2          Fmaj         Cmaj              
         Set it aflame, send it away...