Incubus - Black Heart Inertia Chords & Tabs

 

Black Heart Inertia Chords & Tabs

Incubus Chords & Tabs

Version: 2 Type: Tab

Black Heart Inertia Tab

   
  Ambient Intro    Intro Riff
e|----------------|------------------------------|
B|----------------|------------5-----------------|
G|----------------|------------x-----------------| X 4
D|-14~-~-~-~-~-~-~|----3-----5-5-------3---------|
A|----------------|----3---------------3---------|
E|----------------|-1----1/3------1--1---1-3/5\3-|

Main Riff
e|--------------|
B|--------------|
G|-7777\5\------| X 1
D|-7575\3\-2202-|
A|-5555\3\-3333-|
E|---------1111-|

VERSE
Walking alone tonight
ĎCause Iíve only got room for two
Me and my burdened black heart
Itís all we know how to do

Verse Riff
e|---------------------|
b|---------------------|
G|-9-7-9-------7-7-9-7-| x 4
D|-7-5-7-7\\3----------|
A|-------7\\3--5-5-7-5-|
E|---------------------|

Yet I look for a bigger bang
Than the kind I continually see
Sick of all this inertia ow
Wonít you mend me?

Funk Verse (Funk strum it fast, yo. You can continue with the previous verse riff 
of switching to the funk verse if you so choose.)
e|-11-11-11-11----------------9-9-9-9-9-9-9-9-|
b|-10-10-10-10--14-14--10-10--8-8-8-8-8-8-8-8-|
G|-11-11-11-11--12-12--8--8---9-9-9-9-9-9-9-9-| X 4
D|-9--9--9--9---14-14--10-10--7-7-7-7-7-7-7-7-|
A|--------------12-12--8--8-------------------|
E|--------------------------------------------|

Lover, can you help me?
Iím a child lost in the woods
A black heart pollutes me
And I think

Intro Riff
e|------------------------------|
B|------------5-----------------|
G|------------x-----------------| X 4
D|----3-----5-5-------3---------|
A|----3---------------3---------|
E|-1----1/3------1--1---1-3/5\3-|

Youíre a mountain that Iíd like to climb

Main Riff                 Addition
e|--------------|        |---------------|
B|--------------|        |---------------|
G|-7777\5\------| X 2 -> |---------------|
D|-7575\3\-2202-|        |-77777777--333-|
A|-5555\3\-3333-|        |-77777777--333-|
E|---------1111-|        |-55555555--111-|

Not to conquer, but to share in the view

Main Riff                 Addition
e|--------------|        |---------|
B|--------------|        |---------|
G|-7777\5\------| X 2 -> |---5-----|
D|-7575\3\-2202-|        |-----7---|
A|-5555\3\-3333-|        |-7-----5-|
E|---------1111-|        |---------|

Pulled by a false inertia
Pushed out by circumstance
Pistol firing at my feet
Thatís coercing me to dance

Verse Riff
e|---------------------|
b|---------------------|
G|-9-7-9-------7-7-9-7-| x 4
D|-7-5-7-7\\3----------|
A|-------7\\3--5-5-7-5-|
E|---------------------|

Yet I look for a bigger bang
Than the kind Iím sorry to know.
Here I am, first foot of the climb
Watch me go.

e|-11-11-11-11----------------9-9-9-9-9-9-9-9-|
b|-10-10-10-10--14-14--10-10--8-8-8-8-8-8-8-8-|
G|-11-11-11-11--12-12--8--8---9-9-9-9-9-9-9-9-| X 4
D|-9--9--9--9---14-14--10-10--7-7-7-7-7-7-7-7-|
A|--------------12-12--8--8-------------------|
E|--------------------------------------------|

Lover, can you help me?
Iím a child lost in the woods
A lit path eludes me
And I think

Intro Riff
e|------------------------------|
B|------------5-----------------|
G|------------x-----------------| X 4
D|----3-----5-5-------3---------|
A|----3---------------3---------|
E|-1----1/3------1--1---1-3/5\3-|

Youíre a mountain that Iíd like to climb

Main Riff                 Addition
e|--------------|        |---------------|
B|--------------|        |---------------|
G|-7777\5\------| X 2 -> |---------------|
D|-7575\3\-2202-|        |-77777777--333-|
A|-5555\3\-3333-|        |-77777777--333-|
E|---------1111-|        |-55555555--111-|

Not to conquer, but to share in the view

Main Riff                 Addition
e|--------------|        |----------------|
B|--------------|        |----------------|
G|-7777\5\------| X 2 -> |---5------------|
D|-7575\3\-2202-|        |-----7-----7---7|
A|-5555\3\-3333-|        |-7-----5-----5--|
E|---------1111-|        |----------------|

Youíre a bonfire and Iím gathered íround you

Main Riff                 Addition
e|--------------|        |--------------|
B|--------------|        |--------------|
G|-7777\5\------| X 2 -> |--------------|
D|-7575\3\-2202-|        |-77777777-333-|
A|-5555\3\-3333-|        |-77777777-333-|
E|---------1111-|        |-55555555-111-|

Set this old black heart inertia aflame
[ Tab from: https://www.guitartabs.cc/tabs/i/incubus/black_heart_inertia_tab_ver_2.html ]
Main Riff                 Addition
e|--------------|        |-----------|
B|--------------|        |-----------|
G|-7777\5\------| X 2 -> |-----------|
D|-7575\3\-2202-|        |-7777-3333-|
A|-5555\3\-3333-|        |-7777-3333-|
E|---------1111-|        |-5555-1111-|

Send it away

Solo Part 1 (I set my auto-wah to a slow pace, but this is most likely Mike's gonkulator.)
e|------------------------------------------------------|
B|-5~~~~-1~~~~~~~~~~~~-------8~~~~~~--------------------|
G|-8b9b8-4b5b4b5b4~~~~-7/9~~~~~9p7~~7/9-5h9-5-4b5b4b5b4-|
D|------------------------------------------------------|
A|------------------------------------------------------|
E|------------------------------------------------------|

|--------------------------8-~~~~-------------8~~~~~~~~8~~~~~~~-|
|------8-10-8-8~~8-8-10-10-11b13b11-10--10-10-10b12b10-10b12b10-|
|-5//9~~~~~~~~9~~-----------------------------------------------|
|---------------------------------------------------------------|
|---------------------------------------------------------------|
|---------------------------------------------------------------|

|----12-15-17/19\17-15-13/15-15----------15~~~~~~----15~~~~~~----------------|
|-13----------------------------17-17-15-18b20b18-17-18b20b18-15----15----15-|
|----------------------------------------------------------------17----17----|
|----------------------------------------------------------------------------|
|----------------------------------------------------------------------------|
|----------------------------------------------------------------------------|

----15-19~~~~~~~~~~~~~~~~|
-17----------------------|
-----------0-0-0-0-0-0-0-|
-----------0-0-0-0-0-0-0-|
-------------------------|
-------------------------|

Solo Part 2:

e|-------------------------------------------------------------------|
B|---------------------------------------------------10~~~-----------|
G|---------------------------------------------------12b14b12--------|
D|--------------------------------------3h5-55-3-5-------------10h12-|
A|-3/5-2--3----2----------3/5-2--3----2------------------------------|
E|-----------5---3-5-1-3------------5--------------------------------|

--------------------------------------------------------13h15h16-16b17~~-|
-----------------------------------10h12h13--------10h12-----------------|
-10h12p10~-----------------10h12h13--------10h12h13----------------------|
-------------------10h11h13----------------------------------------------|
-----------10h11h13------------------------------------------------------|
-------------------------------------------------------------------------|

-15p13-----|
-------15~~|
-----------|
-----------|
-----------|
-----------|

Youíre a mountain that I'd like to climb

Main Riff                 Addition
e|--------------|        |---------------|
B|--------------|        |---------------|
G|-7777\5\------| X 2 -> |---------------|
D|-7575\3\-2202-|        |-77777777--333-|
A|-5555\3\-3333-|        |-77777777--333-|
E|---------1111-|        |-55555555--111-|

Not to conquer, but to share in the view

Main Riff                 Addition
e|--------------|        |----------------|
B|--------------|        |----------------|
G|-7777\5\------| X 2 -> |---5------------|
D|-7575\3\-2202-|        |-----7-----7---7|
A|-5555\3\-3333-|        |-7-----5-----5--|
E|---------1111-|        |----------------|

Youíre a bonfire and Iím gathered íround you

Main Riff                 Addition
e|--------------|        |--------------|
B|--------------|        |--------------|
G|-7777\5\------| X 2 -> |--------------|
D|-7575\3\-2202-|        |-77777777-333-|
A|-5555\3\-3333-|        |-77777777-333-|
E|---------1111-|        |-55555555-111-|

Set this old black heart inertia aflame

Main Riff                 Addition
e|--------------|        |----------------|
B|--------------|        |----------------|
G|-7777\5\------| X 2 -> |-----------7777-|
D|-7575\3\-2202-|        |-7777-3333-7777-|
A|-5555\3\-3333-|        |-7777-3333-5555-|
E|---------1111-|        |-5555-1111------|

Set it aflame, send it away

Ending Chords
e|----------------|
B|----------------|
G|-----------7777-|
D|-7777-3333-7777-|
A|-7777-3333-5555-|
E|-5555-1111------|

Wah Wah Outro
e|------------|
B|------------|
G|------------|
D|-5/7\5/7----|
A|------------|
E|------------|