Incubus - Anna Molly Chords & Tabs

 

Anna Molly Chords & Tabs

Incubus Chords & Tabs

Version: 2 Type: Bass Tab

Anna Molly Bass Tab

Tabbed by: Kjelle Vergauwe
Artist: Incubus
Song: Anna Molly
Album: Light grenades


Not sure about some parts, the basics seem to be right.

Intro (00:12)
G --------------------------------------------------------------------------|
D ---------------------------------------23---------------------------------|
A -------------3---------6-----------------3---------6----------------------|
E ------------6-----------------4----------------------------4--------1-----|

(00:25)
G --------------------------------------------------------------------------|
D --------------------------------------------------------------------------|
A -------------33333-6--------------33336666--------------------------------| x2
E -------------------------33333-0-----------------33330000-----------------|

Verse (00:37)
G -----------------------------------|
D -----------------------------------|
A -1-33-133333--56h------------------|  x6
E ----------------------0444---------|

(01:03)
G -------------------------------------------|
D ------------------------------233----------|
A 3-3333-66---------------------0-----------| x2
E -----------------4444-1111-----------------|

(01:16)
G --------------------------------------------------------------------------|
D --------------------------------------------------------------------------|
A -------------33333-6--------------33336666--------------------------------| x2
E -------------------------33333-0-----------------33330000-----------------|

Verse (01:22)
G -----------------------------------|
D -----------------------------------|
A -1-33-133333--56h------------------|  x6
E ----------------------0444---------|
[ Tab from: https://www.guitartabs.cc/tabs/i/incubus/anna_molly_btab_ver_2.html ]
(01:47)
G -------------------------------------------|
D -------------------------------03----------|
A 3-3333-66---------------------------------|
E -----------------4444--4444----------------|

G -------------------------------------------|
D --------------------------333--------------|
A 3-3333-66----------------0222-------------| x2
E -----------------4444----------------------|

G -------------------------------------------|
D ------------------------------233----------|
A 3-3333-66---------------------------------|
E -----------------4444-1111-----------------|


BRIDGE (2:12)
G ---------------|
D -------3-------|
A --6------------|
E -----4---3-----|

(02:37)
G ----------------------------------------------------------------------------|
D ----------------------------------------------------------------------------|
A -------------33333-666--------------33336666--------------------------------| x4
E -------------------------33333-000-----------------33330000-----------------|

REST

(03:10)
G -------------------------------------------|
D -------------------------------03----------|
A 3-3333-66---------------------------------|
E -----------------4444--4444----------------|

G -------------------------------------------|
D --------------------------333--------------|
A 3-3333-66----------------0222-------------| x2
E -----------------4444----------------------|

G -------------------------------------------|
D ------------------------------233----------|
A 3-3333-66---------------------------------|
E -----------------4444-1111-----------------|

G ----------------------------------------------------------------------------|
D ----------------------------------------------------------------------------|
A -------------33333-666--------------33336666--------------------------------|
E -------------------------33333-000-----------------33330000-----------------|