Immortal Technique - Dance With The Devil Chords & Tabs

 

Dance With The Devil Chords & Tabs

Immortal Technique Chords & Tabs

Version: 4 Type: Tab

Dance With The Devil Tab

-------------------------------------------------------------------------------
			     Dance With the Devil  Immortal Technique
-------------------------------------------------------------------------------
Tabbed by: Andrew Washington
Email: awashington07@gmail.com



Tuning: Standard EADGBe

This is the intro and main piano part played through most of the song.  My first tab, 
let me know how you like it.

Note: The rhythm is pretty easy to get if you just listen to the song, if you have any 
questions email me.
[ Tab from: https://www.guitartabs.cc/tabs/i/immortal_technique/dance_with_the_devil_tab_ver_4.html ]
e|---------------------------------------------------------------------------|
B|---------------------------------------------------------------------------|
G|---3---3-3~~------3-3--------------2~~------2-2-------3---3-3~~-----3-3----|
D|-----0--------0-0-----0-1-0----0--0-------------0-1-0---0-------0-0--------|
A|----------------------------3~---3------3-3--------------------------------|
E|---------------------------------------------------------------------------|

e|---------------------------------------------------------------------------|
B|---------------------------------------------------------------------------|
G|--------------2~~------2-2-------------------------------------------------|
D|-0-1-0----0--0-------------0-1-0-------------------------------------------|
A|-------3~---3------3-3-----------------------------------------------------|
E|---------------------------------------------------------------------------|


************************************

~ let ring