Imago - Sundo Chords & Tabs

 

Sundo Chords & Tabs

Imago Chords & Tabs

Version: 2 Type: Tab

Sundo Tab

Artist: Imago
Song: Sundo
Tuning: eBGDAE
Transcribe bY: Rowanne SIpriaso(bluestriper_12@yahoo.com)
School: Letran Calamba(h.s p lang)mg cocollege p lng this skul year.

Note: Sundan nyu lang pu ung track tpos maku2ha nyu na..pakinggan nyu
lang ng maigi.. para auz! astig 2..gnda nung song, maka imago band nmin eh!!.haha!

**********Hi nga pla sa mga kabanda ko from letran, c mary((drummer dati)),kyla((vocals))

e2 nmn consistent band members haha!! ung lage naatend ng praktis!!
+Angeli Naredo- drummer
+Macy Joy Cantavieja- rythmn (guitar)
+Ma. VineLea Villasanta- bassist
+Rowanne Sipriaso- lead (guitar)
**pero lahat nmn kmi all around, khit san mu lagay.. hehe!! YLLUMINATY RULES!
hahaha for your info all girlz kmi hihih astig noh? enjoy nyu na ng 2ng tab na 2.. kita
n lng tau ulet mga bandmeyts, sa letran.. haha! aku lng pla li2pat ng skul sa mga
band members..!! haha ngatz keo..! kitakits na lng my kntabataan pa..! haha!! enjoy..! 
LETRAN!!******************


Intro:
Gtr.1
e|-0~--0~--0~--0~---|
B|-2~--2~--2~--3~---|
G|-2~--1~--0~--2~---| 2x
D|-2~------2~-------|
E|------------------|

Gtr.2
e|-----5---5--------5---5--------4---4--------------------------|
B|---6---6---6----6---6---6----6---6---6----6-86-8-6-----------|
G|-7------------7------------7------------7---------------------|
D|--------------------------------------------------------------|
A|--------------------------------------------------------------|
E|--------------------------------------------------------------|

e|-----5---5--------5---5--------4---4--------------------------|
B|---6---6---6----6---6---6----6---6---6----6-86-8-------------|
G|-7------------7------------7------------7---------------------|
D|--------------------------------------------------------------|
A|--------------------------------------------------------------|
E|--------------------------------------------------------------|

Verse 1:Kaytagal kong...
Gtr.1(Clean Gtr.)
e|-00000--00000-00000--00000~---|
B|-22222--22222-22222--33333~---|
G|-22222--11111-xxxxx--22222~---| 2x
D|-22222--------22222-----------|
A|------------------------------|
E|------------------------------|
[ Tab from: https://www.guitartabs.cc/tabs/i/imago/sundo_tab_ver_2.html ]
Gtr.2(Chorus Effect)
e|-0~--0~--0~--0~---|
B|-2~--2~--2~--3~---|
G|-2~--1~--0~--2~---| 2x
D|-2~------2~-------|
E|------------------|

Pre-Chorus:Sinusundo...
Gtr.1
e|--------------------|
B|--------------------|
G|-1111111111111111---|
D|-2222222222222222---|
A|-2222222222222222---|
E|-0000000000000000---|

Gtr.2
e|--------------------|
B|--------------------|
G|-9999999999999999---|
D|-9999999999999999---|
A|-7777777777777777---|
E|--------------------|

Chorus:Asahan mong...
Gtr.1
e|-00000------2222-0000---|
B|-22222-3333-3333-3333---|
G|-22222-0000-4444-2222---| 2x
D|-22222-2222-4444--------|
A|-------2222-2222--------|
E|-------0000-------------|

Gtr.2
e|------------------------|
B|------------------------|
G|-------9999------5555---|
D|-77777-9999-9999-7777---|
A|-77777-7777-9999-5555---|
E|-55555------7777--------|

Pre-Verse 2:
Gtr.1
e|-00000--00000---|
B|-22222--22222---|
G|-22222--11111---| 2x
D|----------------|
A|----------------|
E|----------------|

Gtr.2
e|-----5---5--------5---5-------------|
B|---6---6---6----6---6---6----6------|
G|-7------------7------------7--------|
D|------------------------------------|
A|------------------------------------|
E|------------------------------------|

Verse 2:Sa akin mo...
Play Verse 1

Repeat Pre-Chorus:

Repeat Chorus:

Last Chord:
e|------|
B|-2~---|
G|-4~---|
D|-4~---|
A|-2~---|
E|------|

End...


Sundo Lyrics:

Verse 1
Kay tagal kong sinusuyod
ang buong mundo
Para hanapin,
para hanapin ka
Nilibot ang distrito
ng iyong lumbay
Pupulutin, pupulutin ka

Pre-Chorus:
Sinusundo kita,
Sinusundo...

Chorus:
Asahan mong mula ngayon
pag-ibig ko?y sayo
Asahan mong mula ngayon
pag-ibig ko?y sayo

verse 2:
Sa akin mo isabit
ang iyong lumbay
Di kukulangin
ang ibibigay
Isuko ang kaba
tuluyan kang bumitaw
Ika?y manalig
Manalig ka..

Repeat Pre-Chorus:

Long Chorus:
Asahan mong mula ngayon
pag-ibig ko?y sayo
Asahan mong mula ngayon
pag-ibig ko?y sayo

Handa na sa liwanag mo
Sinuyod ang buong mundo
Maghihintay sayo?ng sundo

= hehe sori nung grad bol, dapat 2 ung 22g2gin ntin kya lng la gmit, haha! aus lng un,
nxt tym p ulet!! hehe..! Dugong letranista! bleh..! =p