Imagine Dragons - Radioactive Acoustic Chords & Tabs

 

Radioactive Acoustic Chords & Tabs

Imagine Dragons Chords & Tabs

Version: 4 Type: Tab

Radioactive Acoustic Tab

Song: Radioactive
Artist: Imagine Dragons (Covered by Kelly Valleau)

This is Kelly Valleaus cover. Hes a finger style guitarist on youtube and hes
amazing. This is his version, not mine. All credit goes to him. I just looked at what he did
and wrote it down. This doesnt have exact timing but I tried to do the best I could. 
Kelly also slaps, thumps and hits the guitar to match the drum beat. You could try but Im not
good enough to do that

Capo 2nd

Intro

e--------------------------------0-(0)----------|
B---------1-----------3------------------3-(3)--|
G--2-0-2------(2)-0-2----(2)-0-2-------2--------|
D-----------------------------------------------|
A--0-----------0----------3------------3--------|
E-----------------------------------------------|
                                                                        X2
e-----------------------------------------------|
B---------1----------3----------1-(1)-----------|
G--2-0-2-----(2)-0-2----(2)-0-2-------0-2-(2)---|
D-----------------------------------------------|
A------------------------0------------0---------|
E--3----------3---------------------------------|

e----|-----|
B-1--|-(1)-|
G-2--|-(2)-|
D-2--|-(2)-|
A----|-----|
E----|-----|

VERSE

e----------0-0-----------0-0--------------------------|
B--------------3-------------3--------0-0-1-00-1-0----|
G--2-2------------0-0-----------0-0----------------2--|
D-------2--------------2------------0-----------------|
A--0-0------------3-3------------------------------0--|
E-------------------------------3-3-------------------|
   . .            . .           . .

e---------0-0-------------------x-----------|
B-------------3-----------------x-----------|
G----2-----------0-0----000-0-0-x---BREATH--|
D-------2-------------2---------x-----------|
A----0-----------3-3------------x-----------|
E---------------------------3-3-x-----------|
     .

e---------0-0-----------0-0--------------------------|
B-------------3-------------3-------0-0-1-00-1-0-----|
G--2-2-----------0-0----------0-0----------------2-0-|
D-------2-------------2-----------0------------------|
A--0-0-----------3-3-------------------------0-------|
E-----------------------------3-3--------------------|

e---------0-0-------------------x---------|
B-------------3-----------------x--0----x-|
G--2-2-----------0-0----000-0-0-x----2--x-|
D-------2-------------2---------x-------x-|
A--0-0-----------3-3------------x-------x-|
E---------------------------3-3-x---------|

CHORUS

e-------------5--5--5--3-3-3-0-x--3-3-3--2-2-2-2-|
B----------5--5--5--5--1-1-1-1----3-3-3--3-3-3-3-|
G----------5--5--5--5--0-0-0-0--0-0-0-0--2-2-2-2-|
D-2/7-7-7--7--7--7--7--2-2-2-2--0-0-0-0--0-0-0-0-|
A---------------------3-3-3-3--2----------------|
E-------------------------------3----------------|

e------------------------------------------------------------|
B--3-1-3-1-3-1---1--3-1-3-1---3-1-3-1-3-1----1-x------1-(1---|
G--2-2-2-2-2-2p0-0--0-0-0-2p0-0-0-0-0-0-2p0--2-x-2-2-2-------|
D--2-2-2-2-2-2---2--2-2-2-0---0-0-0-0-0-0----2-x-------------|
A--0-0-0-0-0-0---3--3-3-3-3---2-2-2-2-2-2------x-------------|
E-----------------------------3-3-3-3-3-3----0-x-------------|

e----0------------0------------3-3-3-3-2-x--2-2-2-2-0--|
B--1-1-3-1-3----1-1-3-1-3------3-3-3-3-3-x--3-3-3-3-3--|
G--2-2-2-2-2-2-0-0-0-0-0-2-x--0-0-0-0-0-x--2-2-2-2-2--|
D--2-2-2-2-2-0--2-2-2-2-2-0-x--0-0-0-0-0-x--0----------|
A--0---------0--3---------0-x--2------------0----------|
E------------------------------3-----------------------|


e----0------------0------------3-3-3-3-2-x--2-2-2-2-0--|
B--1-1-3-1-3----1-1-3-1-3------3-3-3-3-3-x--3-3-3-3-3--|
G--2-2-2-2-2-2-0-0-0-0-0-2-x--0-0-0-0-0-x--2----------|
D--2-2-2-2-2-0--2-2-2-2-2-0-x--0-0-0-0-0-x-------------|
A--0---------0--3---------0-x--2-----------------------|
E------------------------------3-----------------------|

CHORUS ALTERATION
This way is easier
[ Tab from: https://www.guitartabs.cc/tabs/i/imagine_dragons/radioactive_acoustic_tab_ver_4.html ]
e-------------5-5-5-3-3-0---3-3-3-3-2-2----|
B----------5--------1-------3-------3---3--|
G----------5--------0-------0-------2------|
D2/7-7-7--7--------2-------0--------------|
A-------------------3-------2--------------|
E---------------------------3--------------|

e-------------------------------3-------------------------|
B--3-1-3-1-3------1--3-1-3------3-1-3-1-3------1-------1--|
G--2---------2p0--0--------2p0--0---------2p0--2-2-2-2----|
D--2--------------2-------------0--------------2----------|
A-----------------3-------------2-------------------------|
E-------------------------------3-------------------------|

e-----0-------------0----------3-3-3-3-3-2--2-2-2-2-2-0--|
B--1----3-1-3-----1---3-1-3----3------------3------------|
G--2----------2p0-0---------2--0------------2------------|
D--2--------------2------------0-------------------------|
A-----------------3------------2-------------------------|
E------------------------------3-------------------------|

e-----0-------------0----------3-3-3-3-3-2--x-2-2-2-2-0--|
B--1----3-1-3-----1---3-1-3----3------------x------------|
G--2----------2p0-0---------2--0------------x------------|
D--2--------------2------------0-------------------------|
A-----------------3------------2-------------------------|
E------------------------------3-------------------------|

VERSE 2

e----------0-0-----------0-0--------------------------|
B--------------3-------------3--------0-0-1-00-1-0----|
G--2-2------------0-0-----------0-0----------------2--|
D-------2--------------2------------0-----------------|
A--0-0------------3-3------------------------------0--|
E-------------------------------3-3-------------------|
   . .            . .           . .

e---------0-0-------------------x--------------|
B-------------3-----------------x--0---x-----0-|
G----2-----------0-0----000-0-0-x----2-x---2---|
D-------2-------------2---------x--------0-----|
A----0-----------3-3------------x--------------|
E---------------------------3-3-x--------------|
     .

e---------0-0-----------0-0--------------------------|
B-------------3-------------3-------0-0-1-00-1-0-----|
G--2-2-----------0-0----------0-0----------------2-0-|
D-------2-------------2-----------0------------------|
A--0-0-----------3-3-------------------------0-------|
E-----------------------------3-3--------------------|

e---------0-0-------------------x---------|
B-------------3-----------------x--0----x-|
G--2-2-----------0-0----000-0-0-x----2--x-|
D-------2-------------2---------x-------x-|
A--0-0-----------3-3------------x-------x-|
E---------------------------3-3-x---------|

CHORUS

e-------------5--5--5--3-3-3-0x---3-3-3--2-2-2-2-|
B----------5--5--5--5--1-1-1-1----3-3-3--3-3-3-3-|
G----------5--5--5--5--0-0-0-0--0-0-0-0--2-2-2-2-|
D-2/7-7-7--7--7--7--7--2-2-2-2--0-0-0-0--0-0-0-0-|
A---------------------3-3-3-3--2----------------|
E-------------------------------3----------------|

e----------------------------------------------------------|
B--3-1-3-1-3-1---1--3-1-3-1---3-1-3-1-3-1----1-x------1-(1)|
G--2-2-2-2-2-2p0-0--0-0-0-2p0-0-0-0-0-0-2p0--2-x-2-2-2-----|
D--2-2-2-2-2-2---2--2-2-2-0---0-0-0-0-0-0----2-x-----------|
A--0-0-0-0-0-0---3--3-3-3-3---2-2-2-2-2-2------x-----------|
E-----------------------------3-3-3-3-3-3----0-x-----------|

e----0------------0------------3-3-3-3-2-x--2-2-2-2-0--|
B--1-1-3-1-3----1-1-3-1-3------3-3-3-3-3-x--3-3-3-3-3--|
G--2-2-2-2-2-2-0-0-0-0-0-2-x--0-0-0-0-0-x--2-2-2-2-2--|
D--2-2-2-2-2-0--2-2-2-2-2-0-x--0-0-0-0-0-x--0----------|
A--0---------0--3---------0-x--2------------0----------|
E------------------------------3-----------------------|


e----0------------0------------3-3-3-3-2-x--2-2-2-2-0--|
B--1-1-3-1-3----1-1-3-1-3------3-3-3-3-3-x--3-3-3-3-3--|
G--2-2-2-2-2-2-0-0-0-0-0-2-x--0-0-0-0-0-x--2----------|
D--2-2-2-2-2-0--2-2-2-2-2-0-x--0-0-0-0-0-x-------------|
A--0---------0--3---------0-x--2-----------------------|
E------------------------------3-----------------------|

BRIDGE

e---------------------------------------|
B--1-------1-3---0----------0-----------|
G--2-----2--------------------/4-2--0-2-|
D--2---2------------------0-------------| x2
A--0-----------0-3(3)------------------|
E---------------------------------------|

Straight back into Chorus

Add your own sort of things like guitar percussion or whatever. Hope it sounds good