Illscarlett - Danse Macabre Chords & Tabs

 

Danse Macabre Chords & Tabs

Illscarlett Chords & Tabs

Version: 1 Type: Tab

Danse Macabre Tab

   
Danse Macabre  ill scarlett
tabbed by x.shut.me.up.x@hotmail.com & christophe5@hotmail.com



Intro 

e ----------------------------------|
B ----------------------------------|
G -----6-------6-------6-------6----|
D -8-8---8-7-7---7-6-6---6-5-5---5--| repeat 5x
A ----------------------------------|
E -----------------------------------|

At the 6th time

e --6--6/--|
B --6--6/--|
G --5--5/--|
D --6--6/--|
A ---------|
E ---------|

Main riff
                     |1st time   |2nd&4th time|3rd time      |
e -------------------|------8~--|----------|--------9-----|
B -------------------|--9-7-----|----------|--9-7-9b-9p7--|
G -\10-8----8-10-----|----------|---5-6----|--------------|
D -------11------8-6-|----------|----------|--------------|
A -------------------|----------|----------|--------------|
E -------------------|----------|----------|--------------|


Verse
       X2          X2
e -x-x--9---|--x-x---6---|
B -x-x-10--|--x-x---6---|
G -x-x--10--|--x-x---6---|
D -x-x-8---|--x-x---4---|
A ----------|------------|
E ----------|------------|
   ^ v         ^ v

Chorus
                     
       X2          X2            X2        X8
e -x-x--9---|--x-x---6---|--x-x--8--|--4----------|
B -x-x--10--|--x-x---6---|--x-x--8--|--4----------|
G -x-x--10--|--x-x---6---|--x-x--8--|--4----------|
D -x-x-8---|--x-x---4---|--x-x--6--|--2----------|
A ----------|------------|----------|-------------|
E ----------|------------|----------|-------------|

Play main riff  verse  chorus - intro
Solo
[ Tab from: https://www.guitartabs.cc/tabs/i/illscarlett/danse_macabre_tab.html ]
e --------------------------------------------------------
B --------------------------------------------------------
G -\10-8h10-10-8h10-10-8h10-10-10/12-12-12-11-11-9-9-7-7--
D --------------------------------------------------------
A --------------------------------------------------------
E --------------------------------------------------------

e --------------------------------------------------------
B --------------------------------------------------------
G 7-9-9/11----/12-11-11-9-9-9-7-9-9/11-----------8-10----
D -----------8--------------------------8-8-10-11------8--
A --------------------------------------------------------
E --------------------------------------------------------

e --------------------------------------------------------
B --------------------------------------------------------
G -----810-8h10-10-8h10-10-8h10-10-12-12-12-11-11-9-9-7-7-
D -810----------------------------------------------------
A --------------------------------------------------------
E --------------------------------------------------------

e ----------------------------------------------------------
B ----------------------------------------------------------
G -7-9-9/11--/12-11-11-9-9-7-7-9-11-9-9-7-7-6-6-9-7-7-6-6-4-
D ----------8-----------------------------------------------
A ----------------------------------------------------------
E ----------------------------------------------------------

Post-solo

e -----------------|
B -----------------|
G -6~-----3~--5~--| let ring
D ------3~---------|
A -----------------|
E -----------------|

Play chorus  intro


THE END =]


/=slide
p=pull off
h=hammer on
b=bend
~= tremolo

this is not the whole song im not sure of all the part but this is what i found 

enjoy it =]