I Fight Dragons - Kaboom Chords & Tabs

 

Kaboom Chords & Tabs

I Fight Dragons Chords & Tabs

Version: 1 Type: Bass Tab

Kaboom Bass Tab

   
-------------------------------------------------------------------------------
                             KABOOM!  I Fight Dragons
-------------------------------------------------------------------------------
Tabbed by: Niall Hamilton
E-mail: theniallhamilton@gmail.com

Watch my cover here: http://www.youtube.com/watch?v=sdh9STuJUfY

Tuning: Standard

(Intro and Verse  0.05)

G|---------------------------------------------------------------------------|(x12)
D|---------------------------------------------------------------------------|
A|-----------------------1-----------------------1---------------------------|
E|-2-2-2-2-2---2-2-2-2-2---2-2-2-2-2---2-2-2-2-2-----------------------------|

(Chorus  0.42)

G|---------------------------------------------------------------------------|
D|---------------------------------------------------------------------------|
A|-5-5-5-5-5-5-5-5-----------------2-2-2-2-2-2-2-2-4-4-4-4-4-4-4-4-----------|
E|-----------------5-5-5-5-5-5-5-5-------------------------------------------|

G|---------------------------------------------------------------------------|
D|---------------------------------------------------------------------------|
A|-5-5-5-5-5-5-5-5-----------------------4-4--5-5------------4-4--7-7--------|
E|-----------------5-5-5-5-5-5-5-5--2-2------------5-5--2-2------------5-5---|

(Verse  1.10)

G|---------------------------------------------------------------------------|(x4)
D|---------------------------------------------------------------------------|
A|-----------------------1-----------------------1---------------------------|
E|-2-2-2-2-2---2-2-2-2-2---2-2-2-2-2---2-2-2-2-2-----------------------------|
[ Tab from: https://www.guitartabs.cc/tabs/i/i_fight_dragons/kaboom_btab.html ]
G|---------------------------------------------------------------------------|(x4)
D|---------------------------------------------------------------------------|
A|-----------------------01----------------------01--------------------------|
E|-2-2-2-2-2---2-2-2-2-2---2-2-2-2-2---2-2-2-2-2-----------------------------|

(Chorus  1.41)

G|---------------------------------------------------------------------------|
D|---------------------------------------------------------------------------|
A|-5-5-5-5-5-5-5-5-----------------2-2-2-2-2-2-2-2-4-4-4-4-4-4-4-4-----------|
E|-----------------5-5-5-5-5-5-5-5-------------------------------------------|

G|---------------------------------------------------------------------------|
D|---------------------------------------------------------------------------|
A|-5-5-5-5-5-5-5-5-----------------------4-4--5-5------------4-4--7-7--------|
E|-----------------5-5-5-5-5-5-5-5--2-2------------5-5--2-2------------5-5---|

(Bridge - 2.09)

G|---------------------------------------------------------------------------|(x4)
D|---------------------------------------------------------------------------|
A|-----4-4--5-5--------------4-4--7-7----------------------------------------|
E|-2-2-----------5-5----2-2------------5-5-----------------------------------|




(Chorus  2.33)

G|---------------------------------------------------------------------------|
D|---------------------------------------------------------------------------|
A|-5-5-5-5-5-5-5-5-----------------2-2-2-2-2-2-2-2-4-4-4-4-4-4-4-4-----------|
E|-----------------5-5-5-5-5-5-5-5-------------------------------------------|

G|---------------------------------------------------------------------------|
D|---------------------------------------------------------------------------|
A|-5-5-5-5-5-5-5-5-----------------------4-4--5-5------------4-4--7-7--------|
E|-----------------5-5-5-5-5-5-5-5--2-2------------5-5--2-2------------5-5---|


| /  slide up
| \  slide down
| h  hammer-on
| p  pull-off
| ~  vibrato
| +  harmonic
| x  Mute note
===============================================================================