Hurt - Rapture Chords & Tabs

 

Rapture Chords & Tabs

Hurt Chords & Tabs

Version: 2 Type: Tab

Rapture Tab

   
			     Rapture - Hurt
-------------------------------------------------------------------------------
Tabbed by: Nathan Davis
Email: Natbdavi@yahoo.com

Ok this is my first public tab, ever. The notes are right. Im not too sure how to tab 
counts. If you need help just email me. I had to do this because the other tab seemed 
Anyone with corrections please e-mail me.

Tuning: Drop D  step down (C#)

Intro
D#|--------------------------------|
A#|--------------------------------|
F#|--------------------------------|	3x
C#|--0---0---0---------------------|
G#|--------------------------------|
C#|0---0---0---0--3----------------|


D#|--------------------------------|
A#|--------------------------------|
F#|--------------------------------|
C#|-0-0-0-0-0-0-0----0-0-0-0-0-0---|
G#|-0-0-0-0-0-0-0----0-0-0-0-0-0---|
C#|-0-0-0-0-0-0-0----0-0-0-0-0-0---|
    x x x x x x x    x x x x x x

D#|--------------------------------------------------------------------|
A#|--------------------------------------------------------------------|
F#|-7-7-7-7-7-7/-14-12-12-12-12--10-10/-12-12-12-10-10-9/109-7-7-7-----|
C#|-x-x-x-x-x-x/-x--x--x--x--x---x--x-/--xx--x--x--x-x/x-x-x-x-x-----|
G#|-5-5-5-5-5-5/-12-10-10-10-10--8--8-/-10-10-10-8--8-7/8-7-5-5-5-----|
C#|--------------------------------------------------------------------|
[ Tab from: https://www.guitartabs.cc/tabs/h/hurt/rapture_tab_ver_2.html ]
verse
D#|-----------------------------------------------|
A#|-----------------------------------------------|
F#|-----------------------------------------------|
C#|-0-0-x-x-x-0-0-x-x-x-3h5-5---------------------|
G#|-0-0-x-x-x-0-0-x-x-x-3h5-5---------------------|
C#|-0-0-x-x-x-0-0-x-x-x-3h5-5---------------------|
    P.M

prechorus
D#|--------------------------------------------------|
A#|--------------------------------------------------|
F#|--------------------------------------------------|
C#|-0-0-0-0-0-0-00-0-0-0-0h3------------------------|
G#|-0-0-0-0-0-0-0-0-0-0-0-0h3------------------------|
C#|-0-0-0-0-0-0-0-0-0-0-0-0h3------------------------|
P.M

chorus
D#|----------------------------------------------------------|
A#|----------------------------------------------------------|
F#|----------------------------------------------------------|
C#|-7-7-7-7-7-9-9-9-9-9-10-10-10-10-10-10-/-12-12-12-12-12---|
G#|-x-x-x-x-x-x-x-x-x-x-x--x--x--x--x--x--/--x--x-x--x--x---|
C#|-5-5-5-5-5-7-7-7-7-7-8--8--8--8--8--8--/-10-10-10-10-10---|

1 time after 1st chorus
D#|----------------------------------------------------------------|
A#|----------------------------------------------------------------|
F#|----------------------------------------------------------------|
C#|-14-14-14-14-12-12-12-12-10-10-10-10-9-9-9-9-7-7-7-7-5-5-5-5-7-7|
G#|--x--x-x-x--x--x--x--x-x--x--x--x--x-x-x-x-x-x-x-x-x-x-x-x-x-x|
C#|-12-12-12-12-10-10-10-10-8--8--8--8--7-7-7-7-5-5-5-5-3-3-3-3-5-5|

Theres a little more to this, If you cant figure it out e-mail me. This song is so amazing

| /  slide up
|   slide down
| h  hammer-on
| p  pull-off
| ~  vibrato
| +  harmonic
| x  Mute note
===============================================================================