Huey Lewis And The News - Power Of Love Chords & Tabs

 

Power Of Love Chords & Tabs

Huey Lewis And The News Chords & Tabs

Version: 2 Type: Bass Tab

Power Of Love Bass Tab

Power of love  Huey Lewis and the news

Standard tuning

Intro
G|---------|---------|---------|---------|
D|---------|---------|---------|---------|
A|-3-3-3---|---------|---------|---------| 
E|-------0-|-0-0-0-0-|-1-1-1-3-|-3-3-3-3-|

Verse (not 100% sure about this bit)
G|---------|---------|---------|---------|
D|---------|---------|---------|---------|
A|-------5-|-6-5-6-8-|---8-8---|--5-6----|
E|-8-6-8---|---------|---------|---------|

Chorus
G|---------|---------|---------|---------|
D|---------|---------|---------|---------|
A|-3-3-3---|---------|---------|---------| repeat this line as necessary
E|-------0-|-0-0-0-0-|-1-1-1-3-|-3-3-3-3-|
[ Tab from: https://www.guitartabs.cc/tabs/h/huey_lewis_and_the_news/power_of_love_btab_ver_2.html ]
Last line of chorus
G|---------|---------|---------|---------|
D|---------|---------|---------|---------|
A|-1-----1-|---------|---------|---------| 
E|---------|-1-----1-|-3~~~~~~~|-3-------|

Verse
Chorus

Bridge
G|---------|---------|---------|---------|
D|---------|---------|---------|---------|
A|-6---6-6-|---------|-3---3-3-|---------| 
E|---------|-3---3-3-|---------|-4---4-4-|

G|---------|---------|---------|---------|
D|---------|---------|---------|---------|
A|-6---6-6-|---------|-6---6-6-|---------| 
E|---------|-1---1-1-|---------|-4---4-4-|
            
          These last two bars are the big powerful last chords of the bridge
G|---------|---------|---------|
D|---------|---------|---------|
A|---------|---------|---------| 
E|-3-------|--3---3--|--3---3--|

Solo (same as verse)

Chorus/Outro (repeat till end)
G|---------|---------|---------|---------|
D|---------|---------|---------|---------|
A|-3-3-3---|---------|---------|---------|
E|-------0-|-0-0-0-0-|-1-1-1-3-|-3-3-3-3-|