Hope - Lighthouse Chords & Tabs

 

Lighthouse Chords & Tabs

Hope Chords & Tabs

Version: 1 Type: Chords

Lighthouse Chords

   
-----------------------------------------------------------------------
Song: Lighthouse
Band: Hope
Album: Hope
-----------------------------------------------------------------------
Tabbed by: Jordan Lambert
Email: tmacman001@yahoo.com
Notes: This will just be the base chords used to pick around with, matched as best as
to lyrics. The chord names arenít correct by anyoneís standards, either, so please bear
me. In the recording, the chords change a little from phrase to phrase, so itís 
up to you to adjust the fingering to your own tastes.

Tuning: Standard CAPO 4th

Chords used (Chords notated as if no capo present)
     C   G/B?   Am7  Fadd9?   G?   C/E    Dm   F#sus(b5)  F
e|---0----0------0-----3------x-----0-----1-------7-------x---|
B|---1----1------1-----1------1-----1-----3-------7-------1---|
G|---0----0------0-----2------0-----0-----2-------5-------2---|
D|---2----0------2-----3------0-----2-----0-------4-------3---|
A|---3----2------0-----x------0-----x-----x-------x-------3---|
E|---x----x------x-----x------3---------------------------1---|
[ Tab from: https://www.guitartabs.cc/tabs/h/hope/lighthouse_crd.html ]
Verse 1:
       C     G/B           Am7
I wanna sing     while the ocean sleeps
       Fadd9                      G
I wanna    feel what its like to be free
       C    G/B          Am7
I wanna see     what you see in me
      Fadd9                   G
I wanna  know how it feels to believe

PreChorus:
C          G/B                    Am7   Fadd9
I feel lost somehow Iím drifting away
C                   G/B                  Am7   Fadd9*
Was almost gone, you brought me to life again

Chorus:
   C     G/B      Am7        Fadd9
So let me be your lighthouse
    C             G/B    Am7          Fadd9*
And I'll help you find a way out of here


Verse 2:
C                  G/B
I see the tide is coming
Am7                    Fadd9
Donít let it take you away from me
C                          G/B
Thereís no way Iím jumping over
  Am7                     Fadd9*
I know its your love that saved me

Bridge:
Fadd9
I can see the light now
      C/E
From afar a way out
        Dm              F#sus(b5)
But its slowly drifting away from me
F
Mmmmm

*Little Picking pattern at some Fadd9ís:
e|--3--3--3--|
B|--1--0--1--|
G|-----------|
D|-----------|
A|-----------|
E|-----------|

That's it. I know it's not the most complete tab, so any questions comment or email.

| x  Mute note
=======================================================================