Him - Rip Out The Wings Of A Butterfly Chords & Tabs

 

Rip Out The Wings Of A Butterfly Chords & Tabs

Him Chords & Tabs

Version: 2 Type: Bass Tab

Rip Out The Wings Of A Butterfly Bass Tab

   
Intro (0:07)
D|--------------------| 
A|--------------------|
E|-4-4-6--------4-4-6-|
B|--------------------|

D|------------------------------------|
A|------------------------------------|
E|-666666--44444444444444---------4444|
B|------4h6--------------7-6-4-444----|

D|------------------------------------|
A|------------------------------------|
E|-666666--44444444444444-------------|
B|------4h6--------------7-6-4--------|

Verse
D|-------------------------------------------------------------------------|
A|-------------------------------3--------------------------------------3--|
E|-4h6--6-------6p4--4---4-6-4-6--6-4-4h6--6---6p4-6p46p4-4--4-6-4-6--6-4-|
B|------------------------------------------------------------------------4|

D|------|
A|------|
E|-4-4-6|
B|------|

Chorus
D|------------------------------------|
A|------------------------------------|
E|-666666--44444444444444---------4444|
B|------4h6--------------7-6-4-444----|x2

D|------------------------------------|
A|------------------------------------|
E|-666666--44444444444444-------------|
B|------4h6--------------7-6-4--------|
[ Tab from: https://www.guitartabs.cc/tabs/h/him/rip_out_the_wings_of_a_butterfly_btab_ver_2.html ]
Verse
D|-------------------------------------------------------------------------------|
A|---------------------------------3--------------------------------------3------|
E|-4h6--6---4--4--6p4--4---4-6-4-6--6-4-4h66p4----4-4-4--6p4--4---4-6-4-6--6-4--|
B|-----------------------------------------------------------------------------4-|


D|------|
A|------|
E|-4-4-6|
B|------|

Chorus
D|------------------------------------|
A|------------------------------------|
E|-666666--44444444444444---------4444|
B|------4h6--------------7-6-4-444----|3x

D|------------------------------------------|
A|------------------------------------------|
E|-666666--44444444444444---------4444-6----|
B|------4h6--------------7-6-4-444----------|

Bridge
D|------------------------------------------------|
A|------------------------------------------------|
E|-----4-3------------4---------4-3------------4-6|
B|-6------6-4-----6----4----6------6-4-----6------|

D|-----------------------------------------------------------|
A|-----------------------------------------------------------|
E|-----4-3-----------4---------4-3-------------4-6-----------|
B|-6------6-4-424-6----4----6------6-4-424-6-----------------|

~REST~~~~~~~REST~~~~~~~REST~~~~~~~REST~~~~~~~REST~~~~~~~REST~

D|------|
A|------|
E|-4-4-6|
B|------|

Chorus
D|------------------------------------|
A|------------------------------------|
E|-666666--44444444444444---------4444|
B|------4h6--------------7-6-4-444----|5x

D|------------------------------------------|
A|------------------------------------------|
E|-666666--44444444444444-----------4-4-6---|
B|------4h6--------------7-6-4-444----------|