Him - Heartkiller Chords & Tabs

 

Heartkiller Chords & Tabs

Him Chords & Tabs

Version: 2 Type: Bass Tab

Heartkiller Bass Tab

Heartkiller by HIM

intro
g-------------------------------|
d-------------------------------|
a-------------------------------|   X4
e---5-3-5---5\777\-999----------|


verse 1
g-------------------------------------------------------|
d--------------------68---------------------------------|
a----------------68------------------4444444222222-44-66| X1
e-6666666---66----------666666666-4-4~------------------|

g-------------------------------------------------------|
d--------------------68---------------------------------|
a----------------68------------------4444444222222------| X1
e-6666666---66----------666666666-4-4~------------------|



g-------------------------------|
d-------------------------------|
a-------------------------------|
e-55555555555-------------------|

chorus
g-------------------------------------------------------------------------|
d-------------------------------------------------------------------------|
a-1111111111111\5555555555555\99999999999999910101022--2\55-57-----------|X2
e-------------------------------------------------------------------------|

Intros 2 times, skip on the E string   e------535--| at the beginning of that part.

verse 2
g-------------------------------------------------------|
d--------------------68---------------------------------|
a----------------68------------------4444444222222-44-66| X1
e-6666666---66----------666666666-4-4~------------------|


g----------------------------------------------------------------------|
d--------------------68810---------------------------------------------|
a----------------68------------------------4444444222222-4444444222222-| X2
e-6666666---66---------------666666666-4-4~----------------------------|
[ Tab from: https://www.guitartabs.cc/tabs/h/him/heartkiller_btab_ver_2.html ]
g-------------------------------|
d-------------------------------|
a-------------------------------|
e-55555555555-------------------|

chorus
g-------------------------------------------------------------------------|
d-------------------------------------------------------------------------|
a-1111111111111\5555555555555\99999999999999910101022--2\55-57~----------|X1
e-------------------------------------------------------------------------|

g-------------------------------------------------------------------------|
d-------------------------------------------------------------------------|
a-1111111111111\5555555555555\99999999999999910101022--------------------|X2
e-------------------------------------------------------------------------|

bridge
g-----------------------------------------------------------|
d-----------------------------------------------------------|
a-----------5555557777777------------55555557777777---------|
e-555-333\13---------------555-333\13----------------0~-----|


guitar solo
g--------------------------------------------------------------------------|
d--------------------------------------------------------------------------|
a--------------------------------------------------------------------------|
e7\12-12-12-12-12-12-12-12-12-12-12-12-12-/333333333333333-1111111111111--|

chorus X2

outro

g------------------------------------------------------------------------|
d------------------------------------------------------------------------|
a55555555555555555\99999999999999999/1111111111111555555--22--2\55-57~--|X1
e------------------------------------------------------------------------|


g-------------------------------------------------------------------------|
d-------------------------------------------------------------------------|
a55555555555555555\99999999999999999/1111111111111555555--22--2\55~------|X1
e-------------------------------------------------------------------------|