Him - Buried Alive By Love Chords & Tabs

 

Buried Alive By Love Chords & Tabs

Him Chords & Tabs

Version: 6 Type: Tab

Buried Alive By Love Tab

Artist: HIM
Song: Buried Alive By Love
Tuning: Standard EADGBE

Main Riff x16
E|--------------------------------------------------------|
B|--------------------------------------------------------|
G|--------------------------------------------------------|
D|--------------------------------------------------------|
A|-2-2-2-2-2-2--------------------------------------------|
E|-3-0-0-0-0-0--------------------------------------------|

Riff 1 x3
|---------------------------------------------------------|
|---------------------------------------------------------|
|------------5-5-5-5-5------------------------------------|
|-2-2-2-2-2--5-5-5-5-5------------------------------------|
|-2-2-2-2-2-3-3-3-3-3------------------------------------|
|-0-0-0-0-0-----------------------------------------------|

Main Riff x2
E|--------------------------------------------------------|
B|--------------------------------------------------------|
G|--------------------------------------------------------|
D|--------------------------------------------------------|
A|-2-2-2-2-2-2--------------------------------------------|
E|-3-0-0-0-0-0--------------------------------------------|

Riff 1 x4
|---------------------------------------------------------|
|---------------------------------------------------------|
|------------5-5-5-5-5------------------------------------|
|-2-2-2-2-2--5-5-5-5-5------------------------------------|
|-2-2-2-2-2-3-3-3-3-3------------------------------------|
|-0-0-0-0-0-----------------------------------------------|

Riff 2 x3
|---------------------------------------------------------|
|---------------------------------------------------------|
|---------------------------------------------------------|
|-7-7-77-7-7-7-7-----------------------------------------|
|-7-7-7-7-7-7-7-7--2-2-2-2-2-2--2-2-2-2-2-2---------------|
|-5-5-5-5-5-5-5-5--3-2-2-2-2-2--3-2-2-2-2-2---------------|

Riff 3 x1
|---------------------------------------------------------|
|---------------------------------------------------------|
|-7~~~~~~~~------7--7-------------------------------------|
|-7~~~~~~~~------7--7-------------------------------------|
|-5~~~~~~~~------5--5-------------------------------------|
|---------------------------------------------------------|

Riff 4 x1
|---------------------------------------------------------|
|---------------------------------------------------------|
|-9-9-9-9-9-9--111111111111-121212121212--141414141414----|
|-x-x-x-x-x-x--x-x-x-x-x-x--x-x-x-x-x-x---x-x-x-x-x-x-----|
|-7-7-7-7-7-7--9-9-9-9-9-9--101010101010--121212121212----|
|-0-0-0-0-0-0--0-0-0-0-0-0--0-0-0-0-0-0---0-0-0-0-0-0-----|
 
|---------------------------------------------------------|
|---------------------------------------------------------|
|---------------------------------------------------------|
|-2-2-2-2-2-2---5-5-5-5-5-5-------------------------------|
|-2-2-2-2-2-2---5-5-5-5-5-5-------------------------------|
|-0-0-0-0-0-0---3-3-3-3-3-3-------------------------------|

Riff 5 x1
|---------------------------------------------------------|
|---------------------------------------------------------|
|-9-9-9-9-9-9--1111111111119-9-9-9-9-9---7-7-7-7-7-7-----|
|-x-x-x-x-x-x--x-x-x-x-x-x--x-x-x-x-x-x---x-x-x-x-x-x-----|
|-7-7-7-7-7-7--9-9-9-9-9-9-7-7-7-7-7-7---5-5-5-5-5-5-----|
|-0-0-0-0-0-0--0-0-0-0-0-0--0-0-0-0-0-0---0-0-0-0-0-0-----|

Main Riff x8
E|--------------------------------------------------------|
B|--------------------------------------------------------|
G|--------------------------------------------------------|
D|--------------------------------------------------------|
A|-2-2-2-2-2-2--------------------------------------------|
E|-3-0-0-0-0-0--------------------------------------------|


Riff 1 x3
|---------------------------------------------------------|
|---------------------------------------------------------|
|------------5-5-5-5-5------------------------------------|
|-2-2-2-2-2--5-5-5-5-5------------------------------------|
|-2-2-2-2-2-3-3-3-3-3------------------------------------|
|-0-0-0-0-0-----------------------------------------------|

Main Riff x2
E|--------------------------------------------------------|
B|--------------------------------------------------------|
G|--------------------------------------------------------|
D|--------------------------------------------------------|
A|-2-2-2-2-2-2--------------------------------------------|
E|-3-0-0-0-0-0--------------------------------------------|

Riff 1 x4
|---------------------------------------------------------|
|---------------------------------------------------------|
|------------5-5-5-5-5------------------------------------|
|-2-2-2-2-2--5-5-5-5-5------------------------------------|
|-2-2-2-2-2-3-3-3-3-3------------------------------------|
|-0-0-0-0-0-----------------------------------------------|

Riff 2 x3
|---------------------------------------------------------|
|---------------------------------------------------------|
|---------------------------------------------------------|
|-7-7-77-7-7-7-7-----------------------------------------|
|-7-7-7-7-7-7-7-7--2-2-2-2-2-2--2-2-2-2-2-2---------------|
|-5-5-5-5-5-5-5-5--3-2-2-2-2-2--3-2-2-2-2-2---------------|
[ Tab from: https://www.guitartabs.cc/tabs/h/him/buried_alive_by_love_tab_ver_6.html ]
Riff 3 x1
|---------------------------------------------------------|
|---------------------------------------------------------|
|-7~~~~~~~~------7--7-------------------------------------|
|-7~~~~~~~~------7--7-------------------------------------|
|-5~~~~~~~~------5--5-------------------------------------|
|---------------------------------------------------------|

Riff 4 x1
|---------------------------------------------------------|
|---------------------------------------------------------|
|-9-9-9-9-9-9--111111111111-121212121212--141414141414----|
|-x-x-x-x-x-x--x-x-x-x-x-x--x-x-x-x-x-x---x-x-x-x-x-x-----|
|-7-7-7-7-7-7--9-9-9-9-9-9--101010101010--121212121212----|
|-0-0-0-0-0-0--0-0-0-0-0-0--0-0-0-0-0-0---0-0-0-0-0-0-----|
 
|---------------------------------------------------------|
|---------------------------------------------------------|
|---------------------------------------------------------|
|-2-2-2-2-2-2---5-5-5-5-5-5-------------------------------|
|-2-2-2-2-2-2---5-5-5-5-5-5-------------------------------|
|-0-0-0-0-0-0---3-3-3-3-3-3-------------------------------|

Riff 5 x1
|---------------------------------------------------------|
|---------------------------------------------------------|
|-9-9-9-9-9-9--1111111111119-9-9-9-9-9---7-7-7-7-7-7-----|
|-x-x-x-x-x-x--x-x-x-x-x-x--x-x-x-x-x-x---x-x-x-x-x-x-----|
|-7-7-7-7-7-7--9-9-9-9-9-9-7-7-7-7-7-7---5-5-5-5-5-5-----|
|-0-0-0-0-0-0--0-0-0-0-0-0--0-0-0-0-0-0---0-0-0-0-0-0-----|

Riff 6 x1
|---------------------------------------------------------|
|---------------------------------------------------------|
|---------------------------------------------------------|
|-2-2-2---2-2-2---2-2-2---2-2-2---------------------------|
|-2-2-2---2-2-2---2-2-2---2-2-2---------------------------|
|-0-0-0---0-0-0---0-0-0---0-0-0---------------------------|

Riff 2 x3
|---------------------------------------------------------|
|---------------------------------------------------------|
|---------------------------------------------------------|
|-7-7-77-7-7-7-7-----------------------------------------|
|-7-7-7-7-7-7-7-7--2-2-2-2-2-2--2-2-2-2-2-2---------------|
|-5-5-5-5-5-5-5-5--3-2-2-2-2-2--3-2-2-2-2-2---------------|



Riff 3 x2
|---------------------------------------------------------|
|---------------------------------------------------------|
|-7~~~~~~~~------7--7-------------------------------------|
|-7~~~~~~~~------7--7-------------------------------------|
|-5~~~~~~~~------5--5-------------------------------------|
|---------------------------------------------------------|

Riff 4 x1
|---------------------------------------------------------|
|---------------------------------------------------------|
|-9-9-9-9-9-9--111111111111-121212121212--141414141414----|
|-x-x-x-x-x-x--x-x-x-x-x-x--x-x-x-x-x-x---x-x-x-x-x-x-----|
|-7-7-7-7-7-7--9-9-9-9-9-9--101010101010--121212121212----|
|-0-0-0-0-0-0--0-0-0-0-0-0--0-0-0-0-0-0---0-0-0-0-0-0-----|
 
|---------------------------------------------------------|
|---------------------------------------------------------|
|---------------------------------------------------------|
|-2-2-2-2-2-2---5-5-5-5-5-5-------------------------------|
|-2-2-2-2-2-2---5-5-5-5-5-5-------------------------------|
|-0-0-0-0-0-0---3-3-3-3-3-3-------------------------------|

Riff 7 x1
|---------------------------------------------------------|
|---------------------------------------------------------|
|-9-9-9-9-9-9--1111111111119-9-9-9-9-9---7-7-7-7-7-7-----|
|-x-x-x-x-x-x--x-x-x-x-x-x--x-x-x-x-x-x---x-x-x-x-x-x-----|
|-7-7-7-7-7-7--9-9-9-9-9-9-7-7-7-7-7-7---5-5-5-5-5-5-----|
|-0-0-0-0-0-0--0-0-0-0-0-0--0-0-0-0-0-0---0-0-0-0-0-0-----|
 
|---------------------------------------------------------|
|---------------------------------------------------------|
|---------------------------------------------------------|
|-2-2-2-2-2-2---5-5-5-5-5-5-------------------------------|
|-2-2-2-2-2-2---5-5-5-5-5-5-------------------------------|
|-0-0-0-0-0-0---3-3-3-3-3-3-------------------------------|

Riff 4 x1
|---------------------------------------------------------|
|---------------------------------------------------------|
|-9-9-9-9-9-9--111111111111-121212121212--141414141414----|
|-x-x-x-x-x-x--x-x-x-x-x-x--x-x-x-x-x-x---x-x-x-x-x-x-----|
|-7-7-7-7-7-7--9-9-9-9-9-9--101010101010--121212121212----|
|-0-0-0-0-0-0--0-0-0-0-0-0--0-0-0-0-0-0---0-0-0-0-0-0-----|
 
|---------------------------------------------------------|
|---------------------------------------------------------|
|---------------------------------------------------------|
|-2-2-2-2-2-2---5-5-5-5-5-5-------------------------------|
|-2-2-2-2-2-2---5-5-5-5-5-5-------------------------------|
|-0-0-0-0-0-0---3-3-3-3-3-3-------------------------------|

Riff 5 x1
|---------------------------------------------------------|
|---------------------------------------------------------|
|-9-9-9-9-9-9--1111111111119-9-9-9-9-9---7-7-7-7-7-7-----|
|-x-x-x-x-x-x--x-x-x-x-x-x--x-x-x-x-x-x---x-x-x-x-x-x-----|
|-7-7-7-7-7-7--9-9-9-9-9-9-7-7-7-7-7-7---5-5-5-5-5-5-----|
|-0-0-0-0-0-0--0-0-0-0-0-0--0-0-0-0-0-0---0-0-0-0-0-0-----|

Main Riff x25
E|--------------------------------------------------------|
B|--------------------------------------------------------|
G|--------------------------------------------------------|
D|--------------------------------------------------------|
A|-2-2-2-2-2-2--------------------------------------------|
E|-3-0-0-0-0-0--------------------------------------------|