Hilera - Rhyme Without Reason Chords & Tabs

 

Rhyme Without Reason Chords & Tabs

Hilera Chords & Tabs

Version: 1 Type: Bass Tab

Rhyme Without Reason Bass Tab

Rhyme without Reason
By Hilera

Tabbed by: Benjie Jiao
e-mail: benjiao_1228@yahoo.com



This is in a 4/4 time signature which means the counting is 1-2-3-4 1-2-3-4 1-2-3-4 1-2-3-4...

The dots below each line represent the beats... 
The asterisks represent the first beat or the "1" in every 1-2-3-4...

Intro:
|-----------------------------------------------------------------|
|-----------------------------------------------------------------|
|-6-6-6-6-6-6-6-6-8-8-8-8-8-8-8-8-6-6-6-6-6-6-6-6-8-8-8-8-8-8-8-8-|
|-----------------------------------------------------------------|
  *   .   .   .   *   .   .   .   *   .   .   .   *   .   .   .

|-----------------------------------------------------------------|
|-----------------------------------------------------------------|
|-----6---4-----------6---4-------6---6-------6---8---6---4-------|
|-6-----------6---6-----------6-----------6-------------------8---|
  *   .   .   .   *   .   .   .   *   .   .   .   *   .   .   .  

|-----------------------------------------------------------------|
|-----------------------------------------------------------------|
|-----6---4-----------6---4-------6---6-------6---8---6---4-------|
|-6-----------6---6-----------6-----------6-------------------8---|
  *   .   .   .   *   .   .   .   *   .   .   .   *   .   .   .  


Stanza 1:

|---------------------------------|
|---------------------------------|
|-----6---4-----------6---4-------|
|-6-----------6---6-----------6---|
  *   .   .   .   *   .   .   .   
Stuck in a holy ground


|---------------------------------|
|---------------------------------|
|-----6---4-----------6---4-------|
|-6-----------4---6-----------6---|
  *   .   .   .   *   .   .   .   
Stuck in a holy ground


|---------------------------------|
|---------------------------------|
|-6---6-------6---6---6-------6---|
|---------6---------------6-------|
  *   .   .   .   *   .   .   .   
Oh, and I can't get out


|---------------------------------|
|---------------------------------|
|-8---8-------8---8---6---4-------|
|---------8-------------------8---|
  *   .   .   .   *   .   .   .   
Oh, and I can't get out from this

[ Tab from: https://www.guitartabs.cc/tabs/h/hilera/rhyme_without_reason_btab.html ]
|-----------------------------------------------------------------|
|-----------------------------------------------------------------|
|-----6---4-----------6---4---------------------------------------|
|-6-----------6---6-----------6---4-4-4-4-4-4-4-4-1-1-1-1-1-1-1-1-|
  *   .   .   .   *   .   .   .   *   .   .   .   *   .   .   .  


Stanza 2:

|---------------------------------|
|---------------------------------|
|-----6---4-----------6---4-------|
|-6-----------6---6-----------6---|
  *   .   .   .   *   .   .   .   
Made answers to satisfy


|---------------------------------|
|---------------------------------|
|-----6---4-----------6---4-------|
|-6-----------6---6-----------6---|
  *   .   .   .   *   .   .   .   
Made answers to satisfy


|---------------------------------|
|---------------------------------|
|-6---6-------6---6---6-------6---|
|---------6---------------6-------|
  *   .   .   .   *   .   .   .   
Comments for you to cry


|---------------------------------|
|---------------------------------|
|-8---8-------8---8---6---4-------|
|---------8-------------------8---|
Comments for you to try again


CHORUS

|-----------------------------------------------------------------|
|-----------------------------------------------------------------|
|---------------------------------6---6---6---6---8---8---8---8---|
|-6---6---6---6---6---6---6---6-----------------------------------|
  *   .   .   .   *   .   .   .   *   .   .   .   *   .   .   .  
Rhyme, rhyme without reason [4x]



(Repeat Intro)

(1st Stanza)

(2nd Stanza)

(Chorus)


Adlib:

|-----------------------------------------------------------------|
|-----------------------------------------------------------------|
|-----6---4-----------6---4-------6---6-------6---8---6---4-------|
|-6-----------6---6-----------6-----------6-------------------8---|
  *   .   .   .   *   .   .   .   *   .   .   .   *   .   .   .  
(4x)


|-----------------------------------------------------------------|
|-----------------------------------------------------------------|
|-6-6-6-6-6-6-6-6-8-8-8-8-8-8-8-8-6-6-6-6-6-6-6-6-8-8-8-8-8-8-8-8-|
|-----------------------------------------------------------------|
  *   .   .   .   *   .   .   .   *   .   .   .   *   .   .   .
(2x)


(Chorus)

(The bass doesnít play anything in this part)

Stuck in a holy ground
I'm stuck in a holy ground
Oh, and I can't get out
Oh, and I can't get out from this



Thatís all!!!
Please donít forget to rate this tab!!!

Thanks!!!!!!