Hilary Duff - Crash World Chords & Tabs

 

Crash World Chords & Tabs

Hilary Duff Chords & Tabs

Version: 1 Type: Bass Tab

Crash World Bass Tab

Artist: Hilary Duff                                                          Key: * = Let Ring
Song: Crash World
Instrument: Bass Guitar
Tuning: Standard E
Tabber: Brad Holder


Intro:
G-----
D-----              Repeat till Lyrics Start
A-----
E--5--


Verse 1:
G-----------------------|
D-----------------------|
A-----------------------|
E--5-5-5-5-5-5-5-5------|
      Crash

G--------------------------------------------|
D--------------------------------------------|
A--------------------------------------------|
E--5-5-5-5-5-5-5-5-5-5-5-5-5-5-5-5-----------|
     That was you and me

G---------------------------------------------|
D---------------------------------------------|
A---------------------------------------------|
E--5-5-5-5-5-5-5-5-3-3-3-3-3-3-3-3------------|
       Started out so        innocently

G-----------------------|
D-----------------------|
A-----------------------|
E--3-3-3-3-3-3-3-3------|
                 Shattered


G---------------------------------------------|
D---------------------------------------------|
A---------------------------------------------|
E--1-1-1-1-1-1-1-1-1-1-1-1-1-1-1-1------------|
       on the ground         I hear the sound


G-----------------------|
D-----------------------|
A-----------------------|
E--5-5-5-5-5-5-5-5------|
      Crash

G--------------------------------------------|
D--------------------------------------------|
A--------------------------------------------|
E--5-5-5-5-5-5-5-5-5-5-5-5-5-5-5-5-----------|
     Ringing in my ears


G---------------------------------------------|
D---------------------------------------------|
A---------------------------------------------|
E--5-5-5-5-5-5-5-5-3-3-3-3-3-3-3-3------------|
       I still feel the sting of my tears

G--------------------------------------------|
D--------------------------------------------|
A--3-3-3-3-3-3-3-3-3-3-3-3-3-3-3-3-----------|
E--------------------------------------------|
                     Someone               Wake Me


G--------------------------------------------|
D--------------------------------------------|
A--3-3-3-3-3-3-3-3-3-3-3-3-3-3-3-3-----------|
E--------------------------------------------|
                      I can't seem to break free

Chorus:

G----------------------------------------------|
D----------------------------------------------|
A-------------------------3-3-3-3--------------|
E--5-5-5-5--1-1-1-1------------3-3-3-3---------|
           Go on           Get out of my head
 Iím on the wrong side of a parallel universe
              Am I             alive or just dead

G----------------------------------------------|
D----------------------------------------------|
A--5-5-5-5-5-5-5-5-----------------------------|
E----------------------------------------------|
      I've been stumbling in the dark

G----------------------------------------------|
D----------------------------------------------|
A----------------------------------------------|
E-1*-------------------------------------------|
     Living in a crash world

Pre Verse:
G----------------------------------------------|
D----------------------------------------------|
A-------------------------3-3-3-3--------------|
E--5-5-5-5--1-1-1-1------------3-3*------------|


Verse 2:
G-----------------------|
D-----------------------|
A-----------------------|
E--5-5-5-5-5-5-5-5------|
      Hush

G--------------------------------------------|
D--------------------------------------------|
A--------------------------------------------|
E--5-5-5-5-5-5-5-5-5-5-5-5-5-5-5-5-----------|
     Donít say one more word

G---------------------------------------------|
D---------------------------------------------|
A---------------------------------------------|
E--5-5-5-5-5-5-5-5-3-3-3-3-3-3-3-3------------|
       At this point the truth seems absurd

G-----------------------|
D-----------------------|
A-----------------------|
E--3-3-3-3-3-3-3-3------|
                      Cause


G---------------------------------------------|
D---------------------------------------------|
A---------------------------------------------|
E--1-1-1-1-1-1-1-1-1-1-1-1-1-1-1-1------------|
           who we were   Is gone forever

G-----------------------|
D-----------------------|
A-----------------------|
E--5-5-5-5-5-5-5-5------|
      Crash

G--------------------------------------------|
D--------------------------------------------|
A--------------------------------------------|
E--5-5-5-5-5-5-5-5-5-5-5-5-5-5-5-5-----------|
     Underneath the fears


G---------------------------------------------|
D---------------------------------------------|
A---------------------------------------------|
E--5-5-5-5-5-5-5-5-3-3-3-3-3-3-3-3------------|
       Everything's so twisted and weird

G--------------------------------------------|
D--------------------------------------------|
A--3-3-3-3-3-3-3-3-3-3-3-3-3-3-3-3-----------|
E--------------------------------------------|
                     Someone               Save me

G--------------------------------------------|
D--------------------------------------------|
A--3-3-3-3-3-3-3-3-3-3-3-3-3-3-3-3-----------|
E--------------------------------------------|
                      I can't seem to break free


Chorus:

G----------------------------------------------|
D----------------------------------------------|
A-------------------------3-3-3-3--------------|
E--5-5-5-5--1-1-1-1------------3-3-3-3---------|
           Go on           Get out of my head
 Iím on the wrong side of a parallel universe
              Am I             alive or just dead
[ Tab from: https://www.guitartabs.cc/tabs/h/hilary_duff/crash_world_btab.html ]
G----------------------------------------------|
D----------------------------------------------|
A--5-5-5-5-5-5-5-5-----------------------------|
E----------------------------------------------|
      I've been stumbling in the dark

G----------------------------------------------|
D----------------------------------------------|
A----------------------------------------------|
E-1-1-1-1-1-1-1-1------------------------------|
     Living in a crash world

Pre Verse:
G----------------------------------------------|
D----------------------------------------------|
A-------------------------3-3-3-3--------------|
E--5-5-5-5--1-1-1-1------------3-3-3-3---------|

G----------------------------------------------|
D----------------------------------------------|
A-------------------------3-3-3-3--------------|
E--5-5-5-5--1-1-1-1------------3-3*------------|


Bridge:
G--------------------------------------------|
D--------------------------------------------|
A--5-5-5-5-5-5-5-5---------------------------|
E------------------------1-1-1-1-1-1-1-1-----|
              Slow motion            Devastation

G------------------------------------------------------------|
D------------------------------------------------------------|
A--3-3-3-3-3-3-3-3-------------------------------------------|
E---------------------------------3-3-3-3-3-3-3-3------------|
       Should a seen it coming     But I couldnít do nothing

G--------------------------------------------|
D--------------------------------------------|
A--5-5-5-5-5-5-5-5---------------------------|
E------------------------1-1-1-1-1-1-1-1-----|
              Emotion                   Desperation

G--------------------------------------------|
D--------------------------------------------|
A--3-3-3-3-3-3-3-3-3-3-3-3-3-3-3-3-----------|
E--------------------------------------------|
                     Someone               Save me

G--------------------------------------------|
D--------------------------------------------|
A--3-3-3-3-3-3-3-3-3-3-3-3-3-3-3-3-----------|
E--------------------------------------------|
                      I can't seem to break free

Pre Chorus:
G----------------------------------------------|
D----------------------------------------------|
A-------------------------3-3-3-3--------------|
E--5-5-5-5--1-1-1-1------------3-3-3-3---------|

Chorus:
G----------------------------------------------|
D----------------------------------------------|
A-------------------------3-3-3-3--------------|
E--5-5-5-5--1-1-1-1------------3-3-3-3---------|
           Go on           Get out of my head
 Iím on the wrong side of a parallel universe
              Am I             alive or just dead

G----------------------------------------------|
D----------------------------------------------|
A--5-5-5-5-5-5-5-5-----------------------------|
E----------------------------------------------|
      I've been stumbling in the dark

G----------------------------------------------|
D----------------------------------------------|
A----------------------------------------------|
E-1-1-1-1-1-1-1-1------------------------------|
     Living in a crash world

G----------------------------------------------|
D----------------------------------------------|
A-------------------------3-3-3-3--------------|
E--5-5-5-5--1-1-1-1------------3-3-3-3---------|
           Go on           Get out of my head
 Iím on the wrong side of a parallel universe
              Am I             alive or just dead

G----------------------------------------------|
D----------------------------------------------|
A--5-5-5-5-5-5-5-5-----------------------------|
E----------------------------------------------|
      I've been stumbling in the dark

G----------------------------------------------|
D----------------------------------------------|
A----------------------------------------------|
E-1*-------------------------------------------|
     Living in a crash world

Outro:
G----------------------------------------------|
D----------------------------------------------|
A-------------------------3-3-3-3--------------|
E--5-5-5-5--1-1-1-1------------3-3-3-3---------|

G----------------------------------------------|
D----------------------------------------------|
A-------------------------3-3-3-3--------------|
E--5-5-5-5--1-1-1-1------------3-3-3-3---------|

G----------------------------------------------|
D----------------------------------------------|
A-------------------------3-3-3-3--------------|
E--5-5-5-5--1-1-1-1------------3-3-3-3---------|

G--------|
D--------|
A--------|
E--5-5ó

Lyrics:
Crash
That was you and me
Started out so innocently
Shattered on the ground
I hear the sound
Crash
Ringing in my ears
I still feel the sting of my tears
Someone wake me
I can't seem to break free

[Chorus]
Go on
Get out of my head
Iím on the wrong side of a parallel universe
Am I alive or just dead
I've been stumbling in the dark
Living in a crash world

Hush
Donít say one more word
At this point the truth seems absurd
Cause who we were
Is gone forever

Crash
Underneath the fears
Everything's so twisted and weird
Someone save me
I canít seem to break free

[Chorus]
Go on
Get out of my head
Iím on the wrong side of a parallel universe
Am I alive or just dead
I've been stumbling in the dark
Living in a crash world
[Other people] Crash world, yeah yeah

Slow motion
Devastation
Should'n seen it coming
But I couldnít do nothing
emotion
Desperation
Someone save me
I canít seem to break free

[Chorus]
Go on
Get out of my head
Iím on the wrong side of a parallel universe
Am I alive or just dead
I've been stumbling in the dark
Living in a crash world
[Reapeat twice]

[Other people] say twice Crash world, yeah, yeah