Hey Monday - Hurricane Streets Chords & Tabs

 

Hurricane Streets Chords & Tabs

Hey Monday Chords & Tabs

Version: 1 Type: Tab

Hurricane Streets Tab

   
Hurricane Streets by Hey Monday

Guitar Tab and Chords by Adiel Rostata
E-mail/FS: goddess_of_wrath@yahoo.com

standard tuning
| h  hammer-on

INTRO


guitar 1 (lead)

E--------------------------------------------------|
B----------------------------------10-9----11------|
G---9-9------9h11-9----9------9-11------11---------|
D-------9-11--------11---9h11----------------------|
A--------------------------------------------------|
E--------------------------------------------------|

E--------------------------------------------------|
B----------------------------------10-9----11------|
G---9-9------9h11-9----9------9-11------11----9----|
D-------9-11--------11---9h11----------------------|
A--------------------------------------------------|
E--------------------------------------------------|


guitar 2 (rhythm) (chords E, B, C#m,G#m or Ab, A, E, A, B) 2x or in tabs:

E--------------------------------------------------|
B--------------------------------------------------|
G--99------66------99------------------------------|
D--99--99--66--66--77--99ó-99----------------------|
A--77--99--44--66--77--77--99----------------------|
E------77------44------55ó-77----------------------|
CHECK THE SONG FOR MORE ACCURATE STRUMMING AND TIMING.

(Notice the chords are like that of Canon. Hehe. But in E. Wala lang.=)).



1ST VERSE

1st part. The storm is rushing on me....

Strumming: Palm mute

guitar 2 (rhythm) (chords E, B, C#m, A) 2x or in tabs:

E--------------------------------------------------|
B--------------------------------------------------|
G--99999999------------66666666--------------------|
D--99999999--99999999--66666666--77777777----------| (2x)
A--77777777--99999999--44444444--77777777----------|
E------------77777777------------55555555----------|

2nd part  Wake up in a wasteland.... of this (end of lead).. town
guitar 1 (lead)

E---12---12---12----12--------------------------------------------------------|
B------9----9----9-----9------------------------------------------------------|
G-----------------------------------------------------------------------------|
D-----------------------------------------------------------------------------| (4x)
A-----------------------------------------------------------------------------|
E-----------------------------------------------------------------------------|


guitar 2 (rhythm) (chords E, B, C#m, A) 2x then B or in tabs:

E--------------------------------------------------|
B--------------------------------------------------|
G--99999999------------66666666--------------------|
D--99999999--99999999--66666666--77777777----------|
A--77777777--99999999--44444444--77777777----------|
E------------77777777------------55555555----------|
[ Tab from: https://www.guitartabs.cc/tabs/h/hey_monday/hurricane_streets_tab.html ]
E-----------------------------------------------------------------|
B-----------------------------------------------------------------|
G--99999999------------66666666-----------------------------------|
D--99999999--99999999--66666666--77777777--999999999999999--------|
A--77777777--99999999--44444444--77777777--999999999999999--------|
E------------77777777------------55555555--777777777777777--------|



CHORUS

Live faster, love stronger......
guitar 2 (rhythm) (chords E, B, C#m,G#m or Ab, A, E, A, B) 2x or in tabs:

E--------------------------------------------------|
B--------------------------------------------------|
G--99------66------99------------------------------|
D--99--99--66--66--77--99ó-99----------------------| (2x)
A--77--99--44--66--77--77--99----------------------|
E------77------44------55ó-77----------------------|

End of chorus

In between...

guitar 1 (lead)

E--------------------------------------------------|
B----------------------------------10-9----11------|
G---9-9------9h11-9----9------9-11------11----9----|
D-------9-11--------11---9h11----------------------|
A--------------------------------------------------|
E--------------------------------------------------|


guitar 2 (rhythm) (chords E, B, C#m, A) 2x or in tabs:

E--------------------------------------------------|
B--------------------------------------------------|
G--99999999999-------------------------------------|
D--99999999999--9999999999-------------------------| (2x)
A--77777777777--9999999999-------------------------|
E---------------7777777777-------------------------|


2ND VERSE (same as the whole 1st verse)

CHORUS until end of chorus then

BRIDGE

Leaves are blowing down....
guitar 2 (rhythm)
    A   B C#m   E  or in tabs:

E------------------------------------------------------|
B------------------------------------------------------|
G-----------6---9--------------------------------------|
D---7---9---6---9--------------------------------------|
A---7---9---4---7--------------------------------------|
E---5---7----------------------------------------------|

or in tabs:
    A   B  C#m  B
E------------------------------------------------------|
B------------------------------------------------------|
G-----------6------------------------------------------|
D---7---9---6---9--------------------------------------| (2x)
A---7---9---4---9--------------------------------------|
E---5---7-------7--------------------------------------|

16X strummed per chord (not so sure)
Check for strumming. Even if the tabs are just mentioned once, it doesnít mean 
itís just strummed once

CHORUS 2x

And then last strum of the chord E

E--------------------------------------------------|
B--------------------------------------------------|
G--9-----------------------------------------------|
D--9-----------------------------------------------|
A--7-----------------------------------------------|
E--------------------------------------------------|

My 1st work ever. Just check the song for strumming and timing. Just an amateur so Iím 
for comments and corrections! Arigato!