Hepatite B - Ton Amour Est Trop Lourd Chords & Tabs

 

Ton Amour Est Trop Lourd Chords & Tabs

Hepatite B Chords & Tabs

Version: 1 Type: Bass Tab

Ton Amour Est Trop Lourd Bass Tab

   
Title: Ton amour est trop lourd
Artist: HÚpatite B
Album: ?
Tabber: Steph
Email: cyberbassist@hotmail.com


Intro/Verse:
   B       A       G       B
G|-----------------------------------------------------------------------|
D|-----------------------------------------------------------------------|
A|-2-2-2-2-0-0-0-0---------2-2-2-2---------------------------------------|
E|-----------------3-3-3-3-----------------------------------------------|

[ Tab from: https://www.guitartabs.cc/tabs/h/hepatite_b/ton_amour_est_trop_lourd_btab.html ]
Chorus:
   B            A             G             B
G|-----------------------------------------------------------------------|
D|-----------------------------------------------------------------------|
A|-2-22-22-22-2-0-00-00-00-0----------------2-22-22-22-2-----------------|
E|----------------------------3-33-33-33-3-------------------------------|


0:54

G|-----------------------------------------------------------------------|
D|-----------------------------------------------------------------------|
A|-0-0-0-0--7-7-5-7-----5-5----------------7-77-77-77-7------------------|
E|--------------------------5-6-7-7-7-7-----------------5-55-5-5-5-------|

G|-----------------------------------------------------------------------|
D|-----------------------------------------------------------------------|
A|-----------------------------------------------------------------------|
E|-7-77-77-77--5-55-55-55--3-33-33-33--2-22-22-22\1414141414141414141414-|


Any correction, please email me

EnJOy!