Helena Paparizou - My Number One Chords & Tabs

 

My Number One Chords & Tabs

Helena Paparizou Chords & Tabs

Version: 2 Type: Chords

My Number One Chords

   
Song: My Number One
Artist: Helena Paparizou
Composer: Christos Dantis
Lyrics: Natalia Germanou/ Christos Dantis
Tabber: pozzire

Update - this is how its played live with her band:

Intro
C#m
E|---9--9---9--9---9--9---9--9--|
B|---9--9---9--9---9--9---9--9--|
G|---9--9---9--9---9--9---9--9--|
D|---11-11--11-11--11-11--11-11-| 
A|---11-11--11-11--11-11--11-11-|
E|---9--9---9--9---9--9---9--9--|


Verse 1

E|---9--9---9--9---9--9---9--9--|
B|---9--9---9--9---9--9---9--9--|
G|---9--9---9--9---9--9---9--9--|
D|---11-11--11-11--11-11--11-11-| 
A|---11-11--11-11--11-11--11-11-|
E|---9--9---9--9---9--9---9--9--|
You're my lover, undercover......

E|---9--9---9--9---7--7---9--9--|
B|---9--9---9--9---7--7---9--9--|
G|---9--9---9--9---7--7---9--9--|
D|---11-11--11-11--9--9--11-11--| 
A|---11-11--11-11--9--9--11-11--|
E|---9--9---9--9---7--7---9--9--|
You're my secret passion and I have no other.... 

(For rest of verse play riff until)

E|------------------------------|
B|--2-2---2-2----4-4---5-5------|
G|--2-2---2-2----4-4---6-6------|
D|--4-4---4-4----4-4---6-6------| 
A|--4-4---4-4----2-2---4-4------|
E|--2-2---2-2-------------------|
Take me up to heaven and you wonít regret it

Chorus

E                       B
You are the one, youíre my number one
F#m                    C#m
The only treasure Iíll ever have
E                      B
You are the one,youíre my number one
F#m                                A    B   C#m
Anything for you ícause youíre the one  I  love


[ Tab from: https://www.guitartabs.cc/tabs/h/helena_paparizou/my_number_one_crd_ver_2.html ]
E|---9--9---9--9---9--9---9--9--|
B|---9--9---9--9---9--9---9--9--|
G|---9--9---9--9---9--9---9--9--|
D|---11-11--11-11--11-11--11-11-| 
A|---11-11--11-11--11-11--11-11-|
E|---9--9---9--9---9--9---9--9--|
You're my lover, undercover......

E|---9--9---9--9---7--7---9--9--|
B|---9--9---9--9---7--7---9--9--|
G|---9--9---9--9---7--7---9--9--|
D|---11-11--11-11--9--9--11-11--| 
A|---11-11--11-11--9--9--11-11--|
E|---9--9---9--9---7--7---9--9--|
You're my secret passion and I have no other.... 

INSTRUMENTAL/ LYRA
Play Verse Chord Progression Twice

Verse 2
No Chord
You're a fire and desire (HEY!)

E|---9--9---9--9---7--7---9--9--|
B|---9--9---9--9---7--7---9--9--|
G|---9--9---9--9---7--7---9--9--|
D|---11-11--11-11--9--9--11-11--| 
A|---11-11--11-11--9--9--11-11--|
E|---9--9---9--9---7--7---9--9--|
When I kiss your lips, you know, you take me higher .... 

(For rest of verse play riff until)

E|------------------------------|
B|--2-2---2-2----4-4---5-5------|
G|--2-2---2-2----4-4---6-6------|
D|--4-4---4-4----4-4---6-6------| 
A|--4-4---4-4----2-2---4-4------|
E|--2-2---2-2-------------------|

In my empty life youíll be the only reason


Chorus
You are the one, you're my number one
The only treasure I'll ever have
You are the one, you're my number one
Anything for you 'cause you're the one I love

You're my lover, undercover
You're my secret passion and I have no other (HEY!)


INSTRUMENTAL/ LYRA

Chorus
You are the one, you're my number one
The only treasure I'll ever have
You are the one, you're my number one
Anything for you 'cause you're the one I love

You're my lover, undercover
You're my secret passion and I have no other (HEY!)

CHORUS CHORDS
E|------------------|
B|--0---4--2---5----|
G|--1---4--2---6----|
D|--2---4--2---6----| 
A|--2---2--4---4----|
E|--0------2--------|

Thanks
email: renee_cy@hotmail.com