Green Day - Viva La Gloria Chords & Tabs

 

Viva La Gloria Chords & Tabs

Green Day Chords & Tabs

Version: 3 Type: Tab

Viva La Gloria Tab

   
Ending is hard to hear, so I did the best I could.

This is from the new album 21st Century Breakdown entitled íViva La Gloria!

Listen to the song here:
http://www.youtube.com/watch?v=YQxyxHvlxCY

Capo on 4th fret

Intro:
C - Em - F - C

C          Em
  Hey Gloria
        F                     G         C
Are you standing close to the edge?
               Em              F
Lookout to the setting sun
                  G          C
The brink of your vision
        Em
Eternal youth is
  F                G         C
A landscape of the lie
                 Em               F
The cracks of my skin can prove
                  G          C
As the years will testify
                     Em           F
Say your prayers and light a fire
                       G     C
We're going to start a war
               Em            F
Your slogans a gun for hire
             G               C
It's what we waited for
         Em
Hey Gloria,
        F                G      C
This is why we're on the edge
                 Em
The fight of our lives been drawn to
     F       C
This undying love.


Chorus: Work out the rhythm, pretty simple (just the same as Letterbomb)
[ Tab from: https://www.guitartabs.cc/tabs/g/green_day/viva_la_gloria_tab_ver_3.html ]
Gloria Where Are You Gloria?...
|------------------------------------------------------------------------------------------------|
|------------------------------------------------------------------------------------------------|
|--------------------------------------------6-6-6-6-6-6-6-6-------------------------------------|
|-2-2-2-2-2-2-2-2-------6-6-6-6-6-6-6-6------6-6-6-6-6-6-6-6---7-7-7-7-7-7-7-7---7-7-7-7-7-7-7-7-|
|-2-2-2-2-2-2-2-2-------6-6-6-6-6-6-6-6------4-4-4-4-4-4-4-4---7-7-7-7-7-7-7-7---7-7-7-7-7-7-7-7-|
|-0-0-0-0-0-0-0-0-------4-4-4-4-4-4-4-4------------------------5-5-5-5-5-5-5-5---5-5-5-5-5-5-5-5-|

...Slashing through your spirit
-----------------------------------------------------------------------------|
-----------------------------------------------------------------------------|
-------4-4--6-6-6-6-6-6-6-6--------------------------------------------------|
--2-2--4-4--6-6-6-4-4-4-4-4----7-7-7-7-7-7-7-7-------9-9-9-9-9-9-9-9---------|
--2-2--2-2--4-4-4-4-4-4-4-4----7-7-7-7-7-7-7-7-------9-9-9-9-9-9-9-9---------|
--0-0--------------------------5-5-5-5-5-5-5-5-------7-7-7-7-7-7-7-7---------|x2


Verse:
|-------------------------------------------------------------|
|-------------------------------------------------------------|
|-----------------------------6-6-x-6-6-x-6-6-x-6-6-x---------|
|--2-2-x-2-2-x-6-6-x-6-6-x----6-6-x-6-6-x-6-6-x-6-6-x---------|
|--2-2-x-2-2-x-4-4-x-4-4-x----4-4-x-4-4-x-4-4-x-4-4-x---------|
|--0-0-x-0-0-x-4-4-x-4-4-x------------------------------------|

---------------------------------------------------------|
---------------------------------------------------------|
---------------------------------------------------------|
--7-7-x-7-7-x-2-2-x-2-2-x----9-9-x-9-9-x-9-9-x-9-9-------|
--7-7-x-7-7-x-2-2-x-2-2-x----9-9-x-9-9-x-9-9-x-9-9-------|
--5-5-x-5-5-x-0-0-x-0-0-x----7-7-x-7-7-x-7-7-x-7-7-------|   x2


----------------------|
----------------------|
---2-2-2--2-4-4-4-----|
---2-2-2--2-4-4-4-----|
---0-0-0--0-2-2-2-----|
----------------------|
So don't put away....


Chorus x2


Ending: (very hard to work out, this will fit in with the song)
|---------------------------|
|---------------------------|
|-------4----2--------------|
|--2----4----2----6--4--2---|
|--2----2----0----6--4--2---|
|--0--------------4--2--0---|   x2
So Gloria.....


|------------|
|------------|
|------------|
|--2---2-2-2-|
|--2---2-2-2-|
|--0---0-0-0-|