Green Day - Time Of Your Life Chords & Tabs

 

Time Of Your Life Chords & Tabs

Green Day Chords & Tabs

Version: 3 Type: Chords

Time Of Your Life Chords

   
Green Day - Good Riddance (Time of Your Life)

Tuning EADGBe

Chords used 
 
            G = 320033
        Cadd9 = x32030
            D = xx0232
           Em = 022000

Intro 1 (Optional)

e|--------------------------------------------|
B|--------------------------------------------|
G|------0------------------0------------------|
D|---------0------------------0---------------| ("F*ck")
A|--------------------------------------------|
E|--3-3---------------3-3---------------------|

Intro 2

                         |G|
E|---------------------------------------------------|
A|--------3----------------------3-------------------|
D|-----------0----------------------0----------------|
G|------------------0----------------------0---------|
B|--------------2----------------------2-------------|
E|----3-3-------------------3-3----------------------|

  
  |Cadd9|         |             |D|
-------------------------------------------------------|
---------3---------------------------3-----------------|
------------0-----0---------------------2-------2------|
---------------2----------------0-0----------0---------|
----2-2------------------------------------------------|
-------------------------------------------------------|

(Repeat)

(Use Intro 2 for these lyrics:)

G                        Cadd9              D
Another turning point, a fork stuck in the road

G                             Cadd9                D
Time takes you by the wrist, directs you where to go
Tab 1:

   |Em|                   |G|
e|--------------------------------------------|
B|------0-----------------------3-------------|
G|---------0-----0-----------------0-----0----|
D|------------2-----------------------2-------|
A|--2-2---------------------------------------|
E|-------------------------3-3----------------|

(Repeat 3 times while he sings:)
[ Tab from: https://www.guitartabs.cc/tabs/g/green_day/time_of_your_life_crd_ver_3.html ]
Em           G            Em                 G
So make the best of this test and donít ask why

Em           G            Em                 D
Its not a question but a lesson learned in time

Em                  G             Em             G
Its something unpredictable, but in the end its right


Tab 2
    |Em|                     |D|
e|--------------------------------------------| 
B|-------0------------------------3-----------|
G|---------0---0---------------------2-----2--|
D|-----------2---------------0-0--------0-----|
A|---2-2--------------------------------------|
E|--------------------------------------------|


  Em                D            G
I hope you had the time of your life

(On G start strumming)

G,Cadd9,D x2

G                           Cadd9                 D
So take the photographs and still frames in your mind

G                     Cadd9                 D
Hang it on a shelf in good health and good time

Em            G           Em            G
Tattoos and memories and dead skin on trial

Em            G             Em             D
For what its worth, it was worth all the while

Em                   G            Em              G
Itís something unpredictable, but in the end its right

Em                 Cadd9         D
I hope you had the time of your life

G,Cadd9,D x4

Em,G x3

Em,D

Em                  G            Em              G
Its something unpredictable, but in the end its right

Em                 Cadd9         D
I hope you had the time of your life

G,Cadd9,D x2

(Repeat Tab 1 twice)
(Then tab 2 once)
(Then Intro 2)

(Finally, strum: 32003x)