Green Day - Missing You Chords & Tabs

 

Missing You Chords & Tabs

Green Day Chords & Tabs

Version: 1 Type: Bass Tab

Missing You Bass Tab

Here's Missing You by Green Day from íTRE! :)

G|-----------------------|
D|--7--------4-----------|
A|-----7--5-----5--7-----| (x2)
E|--------------------5--|

Verse

G|-------------------------------|
D|-------------------------------|
A|--------4(x16)--5(x16)---------|
E|--5(x16)---------------5(x16)--|


G|---------------------------------------|
D|---------------------------------------|
A|--------4(x16)--5(x8)--7(x8)--12(x16)--|
E|--5(x16)-------------------------------|

Pre-chorus

G|---------------------------|          G|----------------|
D|---------------------------|          D|----------------|
A|--5(x3)------7(x3)---------|  (x3)    A|--5(x8)--7(x8)--|
E|-------5(x5)------5(x5)----|          E|----------------|


Chorus

G|---------------------------------------------|
D|---------------------------------------------|
A|-------7(x8)--5(x16)-----4(x8)--5(x13)--777--|
E|--5(x8)-------------5(x8)--------------------|

G|--------------------------------------------------------|
D|-------------------4-5-7-5---7--------------------------|
A|-------7(x8)--5(x8)--------7--------4(x8)--5(x13)--777--|
E|--5(x8)------------------------5(x8)--------------------|

Then play again Verse
Play again Pre-verse 

Chorus 2

G|---------------------------------------------|
D|---------------------------------------------|
A|-------7(x8)--5(x16)-----4(x8)--5(x13)--777--|
E|--5(x8)-------------5(x8)--------------------|
[ Tab from: https://www.guitartabs.cc/tabs/g/green_day/missing_you_btab.html ]
G|---------------------------------------------------|
D|-------------------4-5-7-5---7---------------------|
A|-------7(x8)--5(x8)--------7--------4(x8)--5(x16)--|
E|--5(x8)------------------------5(x8)---------------|

Bridge

G|--------------------------------|
D|--7------------4----------------|
A|----7--5555555---5--7-----------| (x2)
E|----------------------55555555--|

After Solo:

G|------------------------------------------|
D|--7777------------4444--------------------|
A|------777755555555----55557777------------| (x6)
E|-------------------------------55555555---|

After this part:

G|------------------------|
D|--7--------4------------|
A|-----7--5-----5--7------| (x2)
E|--------------------5---|

Chorus 3

G|---------------------------------------------|
D|---------------------------------------------|
A|-------7(x8)--5(x16)------4(x8)--5(x13)--777-|
E|--5(x8)--------------5(x8)-------------------|

G|---------------------------7p9-11-14---------------------|
D|-------------------4-5-7p9-------------------------------|
A|-------7(x8)--5(x8)-----------------------4(x8)--5(x16)--|
E|--5(x8)------------------------------5(x8)---------------|

End


G|-----------------------|
D|--7--------4-----------|
A|-----7--5-----5--7-----| 
E|--------------------5--|

It's sounds good. I think the only thing wrong are those notes at chorus, but all 
the other parts of the song are right 

Hope you enjoy your learning, cheers. :D