Green Day - King For A Day Shout Live Chords & Tabs

 

King For A Day Shout Live Chords & Tabs

Green Day Chords & Tabs

Version: 1 Type: Bass Tab

King For A Day Shout Live Bass Tab

---------------------------------------------------------------------
King for a day/Shout (Live) Green Day (from bullet in a bible)
---------------------------------------------------------------------

Tabbed By: Jessluvsbass

A lot of people say this is the highlight of the DVD so I thought what
the hell Id tab it. This song is quiet simple but the order is what
can make it a tad confusing. Basically Im gonna break the song into
two sections, King for a day, and shout, that way it will be easier
to understand. Please rate and enjoy playing the awesome live version
of this song. Cheers!

Tuning: Standard

KING FOR A DAY
Verse (play 4 times)
G|-------------------------------------------------------------------|
D|-------------------------------------------------------------------|
A|----7-7-----------7-7-----------4-4---------4-4--------------------|
E|----------7-7-----------7-7-----------4-4--------4-4---------------|

Pre-chorus (play 4 times)
G|-------------------------------------------------------------------|
D|-------------------------------------------------------------------|
A|--0-0-0-0-0-0-0-0--2-2-2-2-2-2-2-2---------------------------------|
E|-------------------------------------------------------------------|

Chorus
Part one (play 3 times)
G|-------------------------------------------------------------------|
D|-------------------------------------------------------------------|
A|----7-7-----------7-7-----------4-4---------4-4--------------------|
E|----------7-7-----------7-7-----------4-4--------4-4---------------|
Part two (play once)
G|-------------------------------------------------------------------|
D|-------------------------------------------------------------------|
A|--0-0-0-0-0-0-0-0--2-2-2-2-2-2-2-2---------------------------------|
E|-------------------------------------------------------------------|

Verse (play 6 times)
G|-------------------------------------------------------------------|
D|-------------------------------------------------------------------|
A|----7-7-----------7-7-----------4-4---------4-4--------------------|
E|----------7-7-----------7-7-----------4-4--------4-4---------------|

Pre-chorus (play 4 times)
G|-------------------------------------------------------------------|
D|-------------------------------------------------------------------|
A|--0-0-0-0-0-0-0-0--2-2-2-2-2-2-2-2---------------------------------|
E|-------------------------------------------------------------------|
[ Tab from: https://www.guitartabs.cc/tabs/g/green_day/king_for_a_day_shout_live_btab.html ]
Chorus
Part one (play 3 times)
G|-------------------------------------------------------------------|
D|-------------------------------------------------------------------|
A|----7-7-----------7-7-----------4-4---------4-4--------------------|
E|----------7-7-----------7-7-----------4-4--------4-4---------------|
Part two (play once)
G|-------------------------------------------------------------------|
D|-------------------------------------------------------------------|
A|--0-0-0-0-0-0-0-0--2-2-2-2-2-2-2-2---------------------------------|
E|-------------------------------------------------------------------|

Bridge (play 9 times)
G|-------------------------------------------------------------------|
D|-------------------------------------------------------------------|
A|----7-7-----------7-7-----------4-4---------4-4--------------------|
E|----------7-7-----------7-7-----------4-4--------4-4---------------|

Pre-chorus (play 4 times)
G|-------------------------------------------------------------------|
D|-------------------------------------------------------------------|
A|--0-0-0-0-0-0-0-0--2-2-2-2-2-2-2-2---------------------------------|
E|-------------------------------------------------------------------|

Chorus
Part one (play 7 times)
G|-------------------------------------------------------------------|
D|-------------------------------------------------------------------|
A|----7-7-----------7-7-----------4-4---------4-4--------------------|
E|----------7-7-----------7-7-----------4-4--------4-4---------------|
Part two (play 5 times)
G|-------------------------------------------------------------------|
D|-------------------------------------------------------------------|
A|--0-0-0-0-0-0-0-0--2-2-2-2-2-2-2-2---------------------------------|
E|-------------------------------------------------------------------|

Ending (play 11 times)
G|-------------------------------------------------------------------|
D|-------------------------------------------------------------------|
A|----7-7-----------7-7-----------4-4---------4-4--------------------|
E|----------7-7-----------7-7-----------4-4--------4-4---------------|

SHOUT
(Pause after the ending of king for a day)

Verse (play 3 times)
G|-------------------------------------------------------------------|
D|-------------------------------------------------------------------|
A|---7-----7-----4-----4---------------------------------------------|
E|------7-----7-----4------4-----------------------------------------|

Pause

Chorus
G|-------------------------------------------------------------------|
D|-------------------------------------------------------------------|
A|----7-7-----------7-7-----------4-4---------4-4--------------------|
E|----------7-7-----------7-7-----------4-4--------4-4---------------|


Keep playing until Billie starts singing a little bit softer now change to
G|-------------------------------------------------------------------|
D|-------------------------------------------------------------------|
A|---7-----7-----4-----4---------------------------------------------|
E|------7-----7-----4------4-----------------------------------------|

And keep it going until Billie starts singing a little bit louder now,
and then go back to
G|-------------------------------------------------------------------|
D|-------------------------------------------------------------------|
A|----7-7-----------7-7-----------4-4---------4-4--------------------|
E|----------7-7-----------7-7-----------4-4--------4-4---------------|
And keep playing it until the end

And thats it. Hope its not to complicated, cheers!