Green Day - Bullet In A Bible Chords & Tabs

 

Bullet In A Bible Chords & Tabs

Green Day Chords & Tabs

Version: 1 Type: Tab

Bullet In A Bible Tab

   
Hi guys, this album is my favourate along with American Idiot. I like it for the fact
that it includes seven songs from American Idiot and seven older songs (YES< MINORITY
AND TIME OF YOUR LIFE). Pity they didn't put Homecoming in as well 

I can only take about 5% of all the credits for this tab as none of the tabs are done
by me (but i did type in quite a few lyrics). I'm just getting all the tabs from within
Ultimate Guitar and put all of them together because many friends of mine (Green Day
Fans) find its very frustrating to save fifteen or so songs on their desktops.

The tab of shout can not be found and i can't really write a tab for the moment so
i'll just made the best of what i can get hold of. 

So here we go, I have written down the name of the tabber next to each song and I have
chosen what i think are the best tabs.

***********************************************************************************

1. American Idiot - tabbed by reizig
2. Jesus of Suburbia - tabbed by reizig
3. Holiday - tabbed by Matt
4. Are We the Waiting - tabbed by reizig
5. St. Jimmy - tabbed by reizig 
6. Longview - tabbed by greenirv
7. *Hitchin'a Ride - tabbed by Jacob Fry
8. *Brain Stew - tabbed by sNiZz (?)
9. Basket Case - tabbed by Liam
10. King for a Day/ - tabbed by Liam
    Shout (live)
11. *Wake Me Up When September Ends - tabbed by Dan Benz
12. *Minority - tabbed by Liam
13. Boulevard of Brocken Dreams - tabbed by reizig
14. *Good Riddance (Time of Your Life) - tabbed by meg42


************************************************************************************
____________________________________________________________________________________

Track 01: American Idiot (Tabbed By reizig (reizig@gmail.com))
____________________________________________________________________________________

Note: The xxx000 in the Main Riff/Verse is often overlooked.
Listen to the song carefully; it often replaces the final F#5.

As far as I've seen, though, they don't bother with it while
playing live, so you can just play an F#5 instead.

Main Riff:
   G#5  C#5  F#5  C#5 G#5 F#5
e|----------------------------------|
B|----------------------------------|
G|------6---------6-----------------|
D|-6----6----4----6---6---4---------|
A|-6----4----4----4---6---4---------|
E|-4---------2--------4---2---------|

   G#5  C#5  F#5  C#5 G#5 
e|------------------------0---------|
B|------------------------0---------|
G|------6---------6-------0---------|
D|-6----6----4----6---6-------------|
A|-6----4----4----4---6-------------|
E|-4---------2--------4-------------|

Verse:
                 G#5  C#5  F#5  C#5 G#5 F#5   
e|-------------------------------------------|
B|-------------------------------------------|
G|--------------------6---------6------------|
D|--(drums)------6----6----4----6---6---4----|
A|---------------6----4----4----4---6---4----|
E|---------------4---------2--------4---2----|

                 G#5  C#5  F#5  C#5 G#5    
e|--------------------------------------0-----|
B|--------------------------------------0-----|
G|--------------------6---------6-------0-----|
D|--(drums)------6----6----4----6---6---------|
A|---------------6----4----4----4---6---------|
E|---------------4---------2--------4---------|

                 G#5  C#5  F#5  C#5 G#5 F#5   
e|-------------------------------------------|
B|-------------------------------------------|
G|--------------------6---------6------------|
D|--(drums)------6----6----4----6---6---4----|
A|---------------6----4----4----4---6---4----|
E|---------------4---------2--------4---2----|


                 G#5  C#5  F#5  C#5 G#5 
e|-------------------------------------------|
B|-------------------------------------------|
G|--------------------6---------6------------|
D|--(drums)------6----6----4----6---6--------|
A|---------------6----4----4----4---6--12\---|
E|---------------4---------2--------4--------|

Chorus:
   C#5  G#5  D#5  G#5
e|----------------------------|
B|----------------------------|
G|-6---------8----------------|
D|-6----6----8----6-----------|
A|-4----6----6----6-----------|
E|------4---------4-----------|

   C#5  G#5  D#5  
e|--------------------------|
B|--------------------------|
G|-6---------8--------------|
D|-6----6----8--------------|
A|-4----6----6--------------|
E|------4-------------------|


Solo:

e|---------------------------------------------------------------|
B|---------------------------------------------------------------|
G|--10-10-10-10-10-10-10-10-8-6---8-8-8-8-8-8/10-8-6-5-----------|
D|---------------------------------------------------------------|
A|--8--8--8--8--8--8--8--8--6-4---6-6-6-6-6-6/8--6-4-3-----------|
E|---------------------------------------------------------------|

e|------------------------------6----8----6----------------------|
B|-------------------------9-----------------9v------------------|
G|--3-3-3-3-3-5-6-5-3---88---88---88---88--8---------------------|
D|---------------------------------------------------------------|
A|---------------------------------------------------------------|
E|---------------------------------------------------------------|

e|---------------------------------------------------------------|
B|---------------------------------------------------------------|
G|--10-10-10-10-10-10-10-10-8-6---8-8-8-8-8/10-8-6-5-------------|
D|---------------------------------------------------------------|
A|--8--8--8--8--8--8--8--8--6-4---6-6-6-6-6/8--6-4-3-------------|
E|---------------------------------------------------------------|

e|---------------------------------------------------------------|
B|---------------------------------------------------------------|
G|--3-3-3-3-3-5-6-5-3-8/13v--------------------------------------|
D|---------------------------------------------------------------|
A|---------------------------------------------------------------|
E|---------------------------------------------------------------|

End:

   G#5  C#5  F#5  C#5 G#5
e|-------------------------0--------| 
B|-------------------------0--------|
G|------6---------6--------0--------|
D|-6----6----4----6---6-------------|
A|-6----4----4----4---6-------------|
E|-4---------2--------4-------------|

   G#5  C#5  F#5  C#5 G#5 F#5
e|----------------------------------|
B|----------------------------------|
G|------6---------6-----------------|
D|-6----6----4----6---6---4---------|
A|-6----4----4----4---6---4---------|
E|-4---------2--------4---2---------|

   G#5  C#5  F#5  C#5 G#5 
e|------------------------0---------| 
B|------------------------0---------|
G|------6---------6-------0---------|
D|-6----6----4----6---6-------------|
A|-6----4----4----4---6-------------|
E|-4---------2--------4-------------|

   G#5  C#5  F#5  C#5 G#5 F#5
e|----------------------------------|
B|----------------------------------|
G|------6---------6-----------------|
D|-6----6----4----6---6---4---------|
A|-6----4----4----4---6---4---------|
E|-4---------2--------4---2---------|

   G#5  C#5  F#5  C#5 G#5
e|----------------------------------|
B|----------------------------------|
G|------6---------6-----------------|
D|-6----6----4----6---6-------------|
A|-6----4----4----4---6-------------|
E|-4---------2--------4-------------|

Order:

Main Riff x2
Verse
Chorus
Main Riff x1
Verse
Chorus
Main Riff x1
Chorus w/ Solo (no lyrics)
Second part of Main Riff x5
Chorus
End

Lyrics:

Don't wanna be an American idiot
Don't want a nation under the new mania         (Verse 1)
Can you hear the sound of hysteria?
The subliminal mind-fuck America

Welcome to a new kind of tension
All across the alien nation
Everything isn't meant to be OK                 (Chorus)
Television dreams of tomorrow
We're not the ones meant to follow
For that's enough to argue

Well, maybe I'm the faggot, America
I'm not a part of a redneck agenda              (Verse 2)
Now everybody do the propaganda
And sing along in the age of paranoia

(Chorus)

Don't wanna be an American idiot
One nation controlled by the media              (Verse 3)
Information age of hysteria
It's going out to idiot America

(Chorus)

_____________________________________________________________________________________

Track 02. Jesus of Suburbia ((Tabbed By reizig (reizig@gmail.com))
_____________________________________________________________________________________

------------------------------------------------------------
I.   Jesus of Suburbia
------------------------------------------------------------
   
Verse:    
   C#5        A#5  	 F#5		  G#5
e|---------------------------------------------------------|
B|---------------------------------------------------------|
G|-6-6-6-6-------------------------------------------------|
D|-6-6-6-6----8-8-8-8----444444444444444--666666666666666--|
A|-4-4-4-4----8-8-8-8----444444444444444--666666666666666--|
E|------------6-6-6-6----222222222222222--444444444444444--|

Chorus:
   F#5   G#5	x3
e|--------------|
B|--------------|
G|--------------|
D|-4444--66666--|
A|-4444--66666--|
E|-2222--44444--|

Bridge:
   C#5  G#5  F#5	x2
e|----------------------|
B|----------------------|
G|-6-6------------------|
D|-6-6--6-6--4-4444444--|
A|-4-4--6-6--4-4444444--|
E|------4-4--2-2222222--|

Outro:
   C#5        F5  	 A#5  	G#5    F#5
e|----------------------------------------|
B|----------------------------------------|
G|-6-6-6-6--------------------------------|
D|-6-6-6-6----3-3-3-3----8-8-8--6-6-6--4--|
A|-4-4-4-4----3-3-3-3----8-8-8--6-6-6--4--|
E|------------1-1-1-1----6-6-6--4-4-4--2--|
				      (Let ring)
 				
Order:
Verse x2
Chorus
Riff 1
Verse x2
Chorus
Riff 1
Verse (no lyrics)
Outro
  
Lyrics:

I'm the son of rage and love
The Jesus of suburbia				(Verse 1)
From the Bible of none of the above
On a steady diet of 

Soda pop and Ritalin
No one ever died for my sins in hell		(Verse 2)
As far as I can tell				
At least the ones I've gotten away with

And there's nothing wrong with me
This is how I'm supposed to be			(Chorus)
In a land of make believe
That don't believe in me

Get my television fix 
Sitting on my crucifix				(Verse 3)
The living room in my private womb
While the moms and brads are away

To fall in love and fall in debt
To alcohol and cigarettes 			(Verse 4)
And Mary Jane to keep me insane
And doing someone else's cocaine 

(Chorus)


------------------------------------------------------------
II.  City of the Damned
------------------------------------------------------------

Intro:
   F#5	 G#5
e|-----------|
B|-----------|	Come in from final F#5 of Jesus of Suburbia
G|-----------|
D|-4-----6---|
A|-4-----6---|
E|-2-----4---|

Verse:
   C#5     A#5 G#5    F#5 G#5
e|----------------------------|
B|----------------------------|
G|-6---6----------------------|
D|-6---6---8---6------4---6---|
A|-4---3---8---6------4---6---|
E|---------6---4------2---4---|

Chorus:
   A#5   G#5   C#5   F#5   A#5   G#5   F#5
e|-----------------------------------------|
B|-----------------------------------------|
G|-------------6---------------------------|
D|-8-----6-----6-----4-----8-----6-----4---|
A|-8-----6-----4-----4-----8-----6-----4---|
E|-6-----4-----------2-----6-----4-----2---|

Order:

Intro
Verse x2
Chorus
Verse x2
Hold final F#5

Lyrics:

At the center of the earth
In the parking lot				(Verse 1)
Of the 7-11 were I was taught
The motto was just a lie

It says home is were your heart is
But what a shame				(Verse 2)
Cause everyone's heart doesn't beat the same
We're beating out of time

City of the dead
At the end of another lost highway
Sign misleading to nowhere			(Chorus)
City of the damned
Lost children with there dirty faces today
No one really seems to care

I read the graffiti
In the bathroom stall				(Verse 3)
Like the holy scriptures of a shopping mall
And so it seemed to confess

It didn't say much
But it only confirmed that			(Verse 4)
The center of the earth is the end of the world
And I could really care less 

(Chorus)


------------------------------------------------------------
III. I Don't Care
------------------------------------------------------------

Intro: 
   G#5    C#5   G#5    C#5   F#5    C#5     G#5	 x5
e|-----------------------------------------------|
B|-----------------------------------------------|
G|--------6------------6------------6------------|
D|-6------6-----6------6-----4------6-------6----|
A|-6------4-----6------4-----4------4-------6----|
E|-4------------4------------2--------------4----|

Intro lead:
e|-----------------------------------------------|
B|---------------------6-----7-7-77-6-------9v---|
G|--------6-6-6----------8-6----------8-6-8------|
D|-6-6-66-------6-6-66---------------------------|
A|-----------------------------------------------|
E|-----------------------------------------------|


Riff 1:
   F#G#5     C#5   A5G#5  x4 	 
e|--------|---------------|
B|--------|---------------|
G|--------|--6------------|
D|-4-6----|--6-----7-6----|
A|-4-6----|--4-----7-6----|
E|-2-4----|--------5-4----|


Verse:
                          A5G#5  x8
e|-------------------------------|
B|-------------------------------|
G|-------(bass)------------------|
D|------------------------7-6----|
A|-4-4-4-4-4-4-4-4-4-4----7-6----|
E|------------------------5-4----|


Chorus:
   F#5  G#5  C#G#5  x3	F#5  G#5
e|--------------------------------|
B|--------------------------------|
G|-----------6--------------------|
D|-4----6----6-6--------4----6----|
A|-4----6----4-6--------4----6----|
E|-2----4------4--------2----4----|

Riff 4:
   F#G#5  C#5  x4
e|-------------|
B|-------------|
G|--------6----|
D|-4-6----6----|
A|-4-6----4----|
E|-2-4---------|

Outro
   C#5       G#5
e|-------------|
B|-------------|
G|-6-6-6-66----|
D|-6-6-6-66-6--|
A|-4-4-4-44-6--|
E|----------4--|
	   (Let ring)
	    
Order:

Intro w/Intro lead
Intro x4
Riff 1
Verse
Chorus
Riff 2
Outro
	    
Lyrics:

I don't care if you don't
I don't care if you don't 		(Intro) x4	
I don't care if you don't care
                         
I don't care!				(Riff 1)

Everyone is so full of shit
Burn and raised by hipocrits
Hearts recycled but never saved
From the cradle to the grave		(Verse)	
We are the kids of war and peace
From Anaheim to the Middle Mast
We are the stories and disciples
Of the Jesus of suburbia

Land of make believe
And it don't believe in me		(Chorus)		
Land of make believe
And I don't believe

And I don't care!
I don't care!
I don't care!				(Riff 2)
I don't care!
I don't care!

------------------------------------------------------------
IV.  Dearly Beloved
------------------------------------------------------------

The first time, a distorted electric guitar strums each
chord once.  After that, an acoustic strums through them
with the electric palm muting.   
   
   
   G#5  C5   C#5  G#5D#5 x6
e|-----------------------|
B|-----------------------|
G|------5----6-------8---|
D|-6----5----6----6--8---|
A|-6----3----4----6--6---|
E|-4--------------4------|


Lyrics:

Dearly beloved are you listening?
I cant remember a word that you were saying
Are we demented or are we disturbed?
The space that's in between insane and insecure

Oh therapy, can you please fill the void?
Am I retarded or am I just overjoyed
Nobody's perfect and I stand accused
For lack of a better word, and that's my beat excuse

------------------------------------------------------------
 V.  Tales of Another Broken Home
------------------------------------------------------------

Intro: 
   G#5                  F#5 C#5  x4
e|-------------------------------|
B|-------------------------------|
G|--------(bass)------------6----|
D|-6--------------------4---6----|
A|-6--------------------4---4----|
E|-4---4-4-4-4-4-4-4----2--------|
 
Main Riff:  
   G#5                  F#5 C#5   
e|-------------------------------| 
B|-------------------------------| 
G|--------------------------6----| 
D|-6-6-6-6-6-6-6-6-6----4---6----| 
A|-6-6-6-6-6-6-6-6-6----4---4----| 
E|-4-4-4-4-4-4-4-4-4----2--------|

Chorus
   C# G# C# G# C#G#  D# G# D# G# D#G#  x2
e|-------------------------------------|
B|-------------------------------------|
G|-6-----6-----6-----8-----8-----8-----|
D|-6--6--6--6--6-6---8--6--8--6--8-6---|
A|-4--6--4--6--4-6---6--6--6--6--6-6---|
E|----4-----4----4------4-----4----4---|

Solo 1:
                                                x2
e|----------------------------------------------|
B|----------------------------------------------|
G|-10-13---13-15-11-13------11-10--10-11-8-10---|
D|----------------------------------------------|
A|----------------------------------------------|
E|----------------------------------------------|

Solo 2:							      x2
e|------------------------------------------------------------|
B|------------------------------------------------------------|
G|-9p8p6-9p8p6-9p8p6-9p6---11p9p8-11p9p8-11p9p8-11p9p8-11p8---|
D|----------------------8----------------------------------10-|
A|------------------------------------------------------------|
E|------------------------------------------------------------|

Piano Interlude:

C#	     D#
I don't feel any shame
  G#	    C#
I wont apologize
C#		 D#		 G#
When there ain't nowhere WE can go

C#	 D#
Running away from pain
      G#	       C#
When WE've been victimized
C#	    D#
Tales from another broken...


Order:

Intro
Main Riff x8
Chorus
Main Riff x8
Chorus x2
Main Riff x2
Main Riff x4 w/Solo 1
Chorus w/Solo 2
Piano Interlude
Main Riff x6


Lyrics:

To live and not to breathe
Is to die in tragedy			(Verse 1)
To run, to run away
To find what you believe

And I 
Leave behind				(Chorus)
This hurricane of fucking lies

I lost my faith to this
This town that don't exist		(Verse 2)
So I run, I run awy 
The light of masochist

And I 
Leave behind				(Chorus)
This hurricane of fucking lies

And I 
Walked this line			(Chorus 2)
A million and one fucking times

But not this time

I don't feel any shame
I wont apologize
When there ain't nowhere you can go	(Piano Interlude)
Running away from pain
When you've been victimized
Tales from another broken...

Home!
You're leavin'
You're leavin'				
You're leavin'
You're leavin HOME!

_____________________________________________________________________________________

Track 03. Holiday (Tabbed by Matt (mbabenko@yahoo.com))
                 (Lyrics by Liam (guitar_rocker_47@hotmail.com))
_____________________________________________________________________________________

Intro x4
e|-----------------------------------------------------|
B|---9-----6-----13-----8------------------------------|
G|--10-----6-----13-----8------------------------------|
D|--10-x2--6x2--13-x2--8-x2---------------------------|
A|--8------4-----11-----6------------------------------|
E|-----------------------------------------------------|

Verse1 x5
e|----------------------------------------------------|
B|----------------------------------------------------|
G|--10-----6----------8-------------------------------|
D|--10-x2--6-x2-6-----8-x2----------------------------|
A|---8-----4----6-x2--6-------------------------------|
E|--------------4-------------------------------------|

Then play the pre-chorus
e|---------------------------------------------|
B|---------------------------------------------|
G|---5-5-5-5-5-5-5-5-5-------------------------|
D|---5-5-5-5-5-5-5-5-5-------------------------|
A|---3-3-3-3-3-3-3-3-3-------------------------|
E|---------------------------------------------|

Chorus
e|----------------------------------------------------|
B|----------------------------------------------------|
G|-------6-----------8------------6-------------5-----|
D|-3-----6-x4--6-----8-x4---3-----6-x4---6------5-x5--|
A|-3-x4--4-----6-x4--6------3-x4--4------6x4---3-----|
E|-1-----------4------------1------------4------------|

Then Play the Intro
And the Verse riff x3 then the pre-chorus..then the verse riff 3 more times
and then another pre-chorus and then the chorus...and then the bridge

Bridge x2
e|----------------------------------------------|
B|----------------------------------------------|
G|---------6---3--8--------------8--5--10-------|
D|-33--66--6---3--8--8---33--66--8--5--10-------|
A|-33--66--4---1--6--8---33--66--6--3--8--------|
E|-11--44------------6---11--44-----------------|

Solo
e|----------------------------------8---8-------------------|
B|-6-6-6-8-9------------8-8-8----6----6----6-6-6-8-9--------|
G|-----------8-6-5-5-5-------5----------------------8-6-5-5-|
D|----------------------------------------------------------|
A|----------------------------------------------------------|
E|----------------------------------------------------------|

Solo (Continued)
e|---------8-8-8-8--12-12-12-12-12-12-12-12 13~-----------|
B|-8-8-8-8-8-8-8-8---8--8--8--8--8--8--8--8----------------|
G|---------------------------------------------------------|
D|---------------------------------------------------------|
A|---------------------------------------------------------|
E|---------------------------------------------------------|

Only Bass in the Next Verse until towards the end you play
e|---------------------------------------------------------------------|
B|---------------------------------------------------------------------|
G|---8--5--10---5-5-5-5-5-5-5-5-5-5-5-5-5-5-5-5------------------------|
D|---8--5--10---5-5-5-5-5-5-5-5-5-5-5-5-5-5-5-5------------------------|
A|---6--3--8----3-3-3-3-3-3-3-3-3-3-3-3-3-3-3-3------------------------|
E|---------------------------------------------------------------------|

The play the chorus two times and on the 2nd time extend double the amount you
play the last chord in the chorus...then play the intro 4 times and on the fourth
only play until the second chord and the this..

Outro
e|-------------------------------------------------------|
B|-------------------------------------------------------|
G|--8---5---10~------------------------------------------|
D|--8---5---10~------------------------------------------|
A|--6---3---8-~------------------------------------------|
E|-------------------------------------------------------|

(Intro)
Say, Hey

(Verse 1)
Hear the sound of the falling rain
Coming down like an Armageddon flame [Hey!]             
The shame, the ones who died without a name
Here the dogs howling out of key
To a hymn called 'faith and misery' [Hey!]                
And Bleed, the company lost the war today

(Chorus)
I beg to dream and differ from the hollow lies
This is the dawning of the rest of our lives           
On holiday

(Verse 2)
There's a drum pounding out of time
Another protestor has crossed the line [Hey!]           
To find, the money's on the other side
Can I get another Amen?  [Amen!]
There's a flag wrapped around the score of men [Hey!]   
A gag, A plastic bag on a monument

(Chorus)
I beg to dream and differ from the hollow lies
This is the dawning of the rest of our lives         
On holiday

(Bridge)

(Interlude)
The representative from California has the floor:
Zieg Heil! To the president gas Man
Bombs away! (Is your punishment)
Pulverize the Eiffel Towers
Criticize your (government)                               
Bang, Bang! goes the broken glass (man)
Kill all the fags that (don't agree)
Trials by fires, setting fire
It's not a way that's (meant for me)
Just cause... just cause - because we're outlaws yeah!
Backing vocals {hey, hey, hey, hey, hey, hey]

I beg to dream and differ from the hollow lies
This is the dawning of the rest of our lives           
On holiday
I beg to dream and differ from the hollow lies
This is the dawning of the rest of our lives           
This is our lives on holiday


_____________________________________________________________________________________

Track 04: Are We The Waiting (Tabbed By reizig (reizig@gmail.com))
_____________________________________________________________________________________

The song is mostly just arpeggios, it's very simple.

Throughout the whole song, another guitar strums the chord
once while the main guitar goes through the arppeggios.

Main Riff (Intro/Verse/Chorus):
   A                         D
e|---------------------------------2-----------2-------|
B|-------2-----------2-----------3---3-------3---3-----|
G|-----2---2-------2---2-------2-------2---2-------2---|
D|---2-------2---2-------2---0-----------0-------------|
A|-0-----------0---------------------------------------|
E|-----------------------------------------------------|

Pre-Chorus:
(This dirty town, is burnin' down, in my dreams)
   Fm                 E             D                         
e|------------------------------------------------------------|
B|---------11---------------9------/7-----7-----------7-------|
G|------10----10----------9---9----/7---7---7-------7---7-----|
D|---10----------10-----9-------9-----7-------7---7-------7---|
A|-9------------------7-------------------------5-------------|
E|------------------------------------------------------------|
                                    ^This slide is actually played by 
                                       the second guitar, but you can play
                                         it with one.
Order:

Intro:

Intro (Main Riff x1)
Verse (Main Riff x3)
Pre-Chorus x2
Chorus (Main Riff x2)
Verse (Main Riff x3)
Pre-Chorus x2
Outro (Main Riff x5)

Lyrics:

Starry nights city lights
Coming down over me                             (Verse 1)
Skyscrapers and stargazers                      
In my head
Are we we are, Are we we are
The waiting unknown

This dirty town was burning down in my dreams   (Pre-Chorus)
Lost and found city bound in my dreams

And screaming
Are we we are, Are we we are the waiting        (Chorus)
And screaming
Are we we are, Are we we are the waiting

Forget me nots and second thoughts
Live in isolation
Heads or tails and fairytales                   (Verse 2)
In my mind
Are we we are, Are we we are 
The waiting unknown

The rage and love, the story of my life         (Pre-Chorus)
The Jesus of suburbia is a lie

And screaming
Are we we are, Are we we are the waiting 
And screaming
Are we we are, Are we we are the waiting
                                                (Outro)
Are we we are, Are we we are the waiting 
And screaming
Are we we are, Are we we are the waiting

Are we we are, Are we we are the waiting 


____________________________________________________________________________________

Track 05: St. Jimmy - (Tabbed By reizig (reizig@gmail.com))
____________________________________________________________________________________

Intro:
Second guitar is palm muting the open A string.
   A5       D5 A5  x4    D5     E5 D5
e|-------------------------------------|
B|-------------------------------------|
G|----------7------------7------9--7---|
D|-7--------7--7---------7------9--7---|
A|-7--------5--7---------5------7--5---|
E|-5-----------5-----------------------|

Verse:
   A5   D5   E5   A5  x6
e|--------------------|
B|--------------------|
G|------7----9--------|
D|-7----7----9----7---|
A|-7----5----7----7---|
E|-5--------------5---|

Chorus:
   D5      A5      D5      E5  
e|-----------------------------|
B|-----------------------------|
G|-7---------------7-------9---|
D|-7-------7-------7-------9---|
A|-5-------7-------5-------7---|
E|---------5-------------------|

Interlude:
   A5    D5 A5 D5 E5  x4
e|--------------------|
B|--------------------|
G|-------7-----7--9---|
D|-7-----7--7--7--9---|
A|-7-----5--7--5--7---|
E|-5--------5---------|

   A5   E5   C5   D#5 x4
e|--------------------|
B|--------------------|
G|------9----5----8---|
D|-7----9----5----8---|
A|-7----7----3----6---|
E|-5------------------|

   A5        D5        E5        A5
e|---------------------------------------------|
B|---------------------------------------------|
G|-----------7-7-7-7---9-9-9-9---14-14-14-14---|
D|-7-7-7-7---7-7-7-7---9-9-9-9---14-14-14-14---|
A|-7-7-7-7---5-5-5-5---7-7-7-7---12-12-12-12---|
E|-5-5-5-5-------------------------------------|

   A5            D5        E5           
e|---------------------------------------------------|
B|---------------------------------------------------|
G|-14-14-14-14---7-7-7-7---9-9-9-9-9-9-9-9-9-9-9-9-9-|
D|-14-14-14-14---7-7-7-7---9-9-9-9-9-9-9-9-9-9-9-9-9-|
A|-12-12-12-12---5-5-5-5---7-7-7-7-7-7-7-7-7-7-7-7-7-|
E|---------------------------------------------------|

Bridge:
   A5       D5       G5   D5   A5  x5
e|---------------------------------|
B|---------------------------------|
G|----------7-------------7--------|
D|-7--------7--------5----7----7---|
A|-7--------5--------5----5----7---|
E|-5-----------------3---------5---|

Behind the first repitition of the bridge is a second guitar
playing this:
   A5             D5             G5    D5     A5  (<--Guitar 1)
e|-----------------------------------------------------12-12--|
B|------------------------------------------------------------|
G|-9-9-9-9-9-9-9--7-7-7-7-7-7-7--7/12--12/11--14-14-14--------|
D|------------------------------------------------------------|
A|------------------------------------------------------------|
E|------------------------------------------------------------|

End:
   A5   A5   D5      E5   E5   A5  x2
e|---------------------------------|
B|---------------------------------|
G|-----------7-------9----9--------|
D|-7----7----7-------9----9----7---|
A|-7----7----5-------7----7----7---|
E|-5----5----------------------5---|

   A5 A5 A5 A5  
e|--------------|
B|--------------|
G|--------------|
D|-7--7--7--7---|
A|-7--7--7--7---|
E|-5--5--5--5---|

Order:
Intro
Verse
Chorus
Verse
Chorus
Interlude
Bridge
End

Lyrics:

St. Jimmy's comin' down across the alleyway
Up on the boulevard like a zipgun on parade
Light of a sillohette                                   (Intro)
He's insubordinate
Coming at you on account of One Two
One Two Three Four!

My name is Jimmy and you better not wear it out
Suicide commando that your momma talked about           (Verse 1)
King of the forty theives and I'm here to represent
The needle in the vein of the establishment

I'm the patron saint of the denial              
With an angel face and a taste for suicidal             (Chorus)

Cigarettes and ramen and a little bag of dope 
I am the son of a bitch and Edgar Allen Poe             
Raised in the city under a halo of lights               (Verse 2)
The product of war and fear that we've been victimized

I'm the patron saint of the denial
With an angel face and a taste for suicidal             (Chorus)

You talkin' to me?
I'll give you something to cry about.                   (Interlude)
ST. JIMMY

My name is St. Jimmy I'm a son of a gun
I am the one that's from the way outside now
A teenage assasin executing some fun
In the cult of the life of crime now
                                                        (Bridge)
I'd really hate to say it but I told you so
So shut your mouth before I shoot you down old boy
Welcome to the club and give me some blood
I'm the resident leader at the lost and found

It's comedy and tragedy
It's St. Jimmy                                          (End)
And that's my name
...and don't wear it out!


_______________________________________________________________________________________

Track 06.Longview - Green Day (Tabbed by greenirv (dpaytons@msn.com))
_______________________________________________________________________________________


Verse:**


Chorus:
e|----------------------------------------------------------|
B|----------------------------------------------------------|
G|-555555555555-------------7-7-------------7-7-------------|
D|-555555555555-7-7-7-7-5-5-7-7-7-7-7-7-5-5-7-7-------------|
A|-333333333333-7-7-7-7-5-5-5-5-7-7-7-7-5-5-5-5-------------|
E|--------------5-5-5-5-3-3-----5-5-5-5-3-3-----------------|

e|----------------------------------------------------------|
B|----------------------------------------------------------|
G|-------------7-7-----------------7~\----------------------|
D|-7-7-7-7-5-5-7-7-7-7-7-7-5-5-5-5-7~\----------------------|
A|-7-7-7-7-5-5-5-5-7-7-7-7-5-5-5-5-5~\----------------------|
E|-5-5-5-5-3-3-----5-5-5-5-3-3-3-3--------------------------|


Verse:**


Chorus:
e|----------------------------------------------------------|
B|----------------------------------------------------------|
G|-555555555555-------------7-7-------------7-7-------------|
D|-555555555555-7-7-7-7-5-5-7-7-7-7-7-7-5-5-7-7-------------|
A|-333333333333-7-7-7-7-5-5-5-5-7-7-7-7-5-5-5-5-------------|
E|--------------5-5-5-5-3-3-----5-5-5-5-3-3-----------------|

e|----------------------------------------------------------|
B|----------------------------------------------------------|
G|-------------7-7-----------------7~\----------------------|
D|-7-7-7-7-5-5-7-7-7-7-7-7-5-5-5-5-7~\----------------------|
A|-7-7-7-7-5-5-5-5-7-7-7-7-5-5-5-5-5~\----------------------|
E|-5-5-5-5-3-3-----5-5-5-5-3-3-3-3--------------------------|


Bridge:
e|----------------------------------------------------------|
B|----------------------------------------------------------|
G|-7-7-7-7-5-5-5-5-7-7-7-7-5-5-5-5--------------------------|
D|-7-7-7-7-5-5-5-5-7-7-7-7-5-5-5-5--------------------------|
A|-5-5-5-5-3-3-3-3-5-5-5-5-3-3-3-3--------------------------|
E|----------------------------------------------------------|

e|----------------------------------------------------------|
B|----------------------------------------------------------|
G|-7-7-7-7-5-5-5-5-7-7-7-7-5-5-5-5--------------------------|
D|-7-7-7-7-5-5-5-5-7-7-7-7-5-5-5-5--------------------------|
A|-5-5-5-5-3-3-3-3-5-5-5-5-3-3-3-3--------------------------|
E|----------------------------------------------------------|

e|----------------------------------------------------------|
B|----------------------------------------------------------|
G|-------------7-7-------------7-7-------------7-7----------|
D|-7-7-7-7-5-5-7-7-7-7-7-7-5-5-7-7-7-7-7-7-5-5-7-7----------|
A|-7-7-7-7-5-5-5-5-7-7-7-7-5-5-5-5-7-7-7-7-5-5-5-5----------|
E|-5-5-5-5-3-3-----5-5-5-5-3-3-----5-5-5-5-3-3--------------|

e|----------------------------------------------------------|
B|----------------------------------------------------------|
G|-----------------7~\--------------------------------------|
D|-7-7-7-7-5-5-5-5-7~\--------------------------------------|
A|-7-7-7-7-5-5-5-5-5~\--------------------------------------|
E|-5-5-5-5-3-3-3-3------------------------------------------|


Verse:**


Chorus:
e|----------------------------------------------------------|
B|----------------------------------------------------------|
G|-555555555555555555555555-------------7-7-------------7-7-|
D|-555555555555555555555555-7-7-7-7-5-5-7-7-7-7-7-7-5-5-7-7-|
A|-333333333333333333333333-7-7-7-7-5-5-5-5-7-7-7-7-5-5-5-5-|
E|--------------------------5-5-5-5-3-3-----5-5-5-5-3-3-----|

e|----------------------------------------------------------|
B|----------------------------------------------------------|
G|-------------7-7-------------7-7-------------7-7----------|
D|-7-7-7-7-5-5-7-7-7-7-7-7-5-5-7-7-7-7-7-7-5-5-7-7----------|
A|-7-7-7-7-5-5-5-5-7-7-7-7-5-5-5-5-7-7-7-7-5-5-5-5----------|
E|-5-5-5-5-3-3-----5-5-5-5-3-3-----5-5-5-5-3-3--------------|

e|----------------------------------------------------------|
B|----------------------------------------------------------|
G|-------------7-7-------------7-7-----------------7~\------|
D|-7-7-7-7-5-5-7-7-7-7-7-7-5-5-7-7-7-7-7-7-5-5-5-5-7~\------|
A|-7-7-7-7-5-5-5-5-7-7-7-7-5-5-5-5-7-7-7-7-5-5-5-5-5~\------|
E|-5-5-5-5-3-3-----5-5-5-5-3-3-----5-5-5-5-3-3-3-3----------|


Outro:
e|------------------10~\------------------------------------|
B|-7-8-8-5~\-7-8-10-----------------------------------------|
G|----------------------------------------------------------|
D|----------------------------------------------------------|repeat until end
A|----------------------------------------------------------|
E|----------------------------------------------------------|



| \ slide down
| ~ let ring


**Only bass plays on verse**


Lyrics:

Sit around and watch the tube but, nothings on
Change the channels for an hour of two
Twiddle my thumbs just for a bit
I'm sick of all the same old shit
In a house with unlocked doors
And I'm fucking lazy

Bite my lip and close my eyes
Take me away to paradise
I'm so damn bored I'm going blind
And I smell like shit

Peel me off this velcro seat and get me moving
I sure as hell can't do it by myself
I'm feeling like a dog in heat
Barred indoors from the summer street
I locked the door to my own cell
And I lost the key

Sit around and watch the phone, but no one's calling
Call me pathetic, call me what you will
My mother says to get a job
But she don't like the one she's got
When masturbation's lost its fun
You're fucking breaking

Bite my lip and close my eyes
Take me away to paradise
I'm so damn bored
I'm going blind
And loneliness has to suffice
Bite my lip and close my eyes
Slipping away to paradise
Some say, 'quit or I'll go blind.'
But it's just a myth

______________________________________________________________________________________

Track 07. HITCHIN A RIDE (Tabbed by Jacob Fry (jacob_1313@hotmail.com))
			 (Lyrics by me)
______________________________________________________________________________________

starts off with a violin intro.....

Verse
e|---------------------------------------------------------------------|
B|---------------------------------------------------------------------|
G|---------------------------------------------------------------------|
D|-99-X-33-X-66-X-5555-------------------------------------------------|
A|-99-X-33-X-66-X-5555-------------------------------------------------|
E|-77-X-55-X-44-X-3333-------------------------------------------------|

Chorus:
e|---------------------------------------------------------------------|
B|---------------------------------------------------------------------|
G|---------------------------------------------------------------------|
D|-2222222--4444444-99-X-77-X-66-X-5555--2222222-4444------------------|
A|-2222222--4444444-99-X-77-X-66-X-5555--2222222-4444------------------|
E|-0000000--2222222-77-X-55-X-44-X-3333--0000000-2222------------------|

Solo:
e|-----------------------------------------------------------------------------|
B|-----------------------------------------------------------------------------|
G|-4444444--7777777--4444444-------------------4444444--7777777--9999910101010-|
D|-4444444--7777777--4444444--5555555-4444444--4444444--7777777--9999910101010-|
A|-2222222--5555555--2222222--5555555-4444444--2222222--5555555--777778-8-8-8--|
E|----------------------------3333333-2222222----------------------------------|

e|---------------------------------------------------------------------------|
B|---------------------------------------------------------------------------|
G|-9-7---7-9-7---7-9-7-------7-------7-9-7---7-9-7-999910101010--------------|
D|-9-7-9-7-9-7-9-7-9-7-9-7-9-7-9-7-9-7-9-7-9-7-9-7-999910101010--------------|
A|-7-5-9-5-7-5-9-5-7-5-9-7-9-5-9-7-9-5-7-5-9-5-7-5-77778-8-8-8---------------|
E|-----7-------7-------7-5-7---7-5-7-------7---------------------------------|

Outro: (this is also the rythm under the solo)
e|---------------------------------------------------------------------------|
B|---------------------------------------7-----------------------------------|
G|----77---------------------------------8-----------------------------------|
D|-99-77-55-44---------------------------9-----------------------------------|
A|-99-55-55-44---------------------------9-----------------------------------|
E|-77----33-22---------------------------7-----------------------------------|

i think the solo starts over near the end of the song but it doesnt go all the
way through, its very quiet as well.

Lyrics

Verse I		Sit around watch the tube, but nothing is on
		Change the channel for an hour or two
		Twiddle my thumbs just for a bit but
		I'm sick of all the same old shit
		In a house with unlocked doors
		    And I'm ****ing lazy

Chorus		Bite my lip and close my eyes
		Take me away to paradise
		I'm so damn bored I'm going blind
		And I smell like shit
		
Verse II	Peel me off this velcro seat and get me moving 
		I sure as hell Can't do it by myself
		I'm feeling like a dog in heat
		Barred indoors from summer streets
		I locked my own door to my own cell
		   And I lost the key

Chorus		Bite my lip and close my eyes
		Take me away to paradise
		I'm so damn bored I'm going blind
		And I smell like shit

		I GOT NO MOTIVATION
		WHERE IS MY MOTIVATION
		NO TIME FOR MOTIVATION
		SMOLE MY NISPIRATION

Verse III	Sit around and watch the phone, but noone's calling
		Call me pathatic call me what you will
		My mother says to get a job
		But she don't like the one she's got
		When masturbation has lost it's fun
		   You're ****ing lazy


Chorus		Bite my lip and close my eyes
		Take me away to paradise
		I'm so damn bored I'm going blind
		And I smell like shit

		Bite my lip and close my eyes
		Take me away to paradise
		Some say, 'Quit or I'll go blind'
		But it's just a myth


_____________________________________________________________________________________

Track 08. Brain Stew (Tab by sNiZz (?))
		     (Lyrics by me)
_____________________________________________________________________________________
Here it is...

(You might tune down half a step I'm not sure)

|------------------------|--------------------------------
|------------------------|--------------------------------
|------------------------|--------------------------------
|-7-7--5-5--4-4--3-3-2-2-|-7-7--5-5--4-4--3-3-3-3-2-2-2-2-
|-7-7--5-5--4-4--3-3-2-2-|-7-7--5-5--4-4--3-3-3-3-2-2-2-2-
|-5-5--3-3--2-2--1-1-0-0-|-5-5--3-3--2-2--1-1-1-1-0-0-0-0-

Chorus thingy (Part 1) I guess... 2x
|-----------------------------------------------------------
|-----------------------------------------------------------
|-----------------------------------------------------------
|-7-7--X-X-X-X--5-5--X-X-X-X--4-4--X-X-X-X--3-3-3-3-2-2-2-2-
|-7-7--X-X-X-X--5-5--X-X-X-X--4-4--X-X-X-X--3-3-3-3-2-2-2-2-
|-5-5-----------7-7-----------2-2-----------1-1-1-1-0-0-0-0-

Back to this several times
|------------------------|--------------------------------
|------------------------|--------------------------------
|------------------------|--------------------------------
|-7-7--5-5--4-4--3-3-2-2-|-7-7--5-5--4-4--3-3-3-3-2-2-2-2-
|-7-7--5-5--4-4--3-3-2-2-|-7-7--5-5--4-4--3-3-3-3-2-2-2-2-
|-5-5--3-3--2-2--1-1-0-0-|-5-5--3-3--2-2--1-1-1-1-0-0-0-0-
[ Tab from: https://www.guitartabs.cc/tabs/g/green_day/bullet_in_a_bible_tab.html ]
Chorus thingy (Part 2) I guess... 2x
|-----------------------------------------------------------
|-----------------------------------------------------------
|-----5-5-7-7-------5-5-7-7-------5-5-7-7-------------------
|-7-7-5-5-7-7--5-5--5-5-7-7--4-4--5-5-7-7--3-3-3-3-2-2-2-2-
|-7-7----------5-5-----------4-4-----------3-3-3-3-2-2-2-2-
|-5-5----------7-7-----------2-2-----------1-1-1-1-0-0-0-0-

Back to this several times
|------------------------|--------------------------------
|------------------------|--------------------------------
|------------------------|--------------------------------
|-7-7--5-5--4-4--3-3-2-2-|-7-7--5-5--4-4--3-3-3-3-2-2-2-2-
|-7-7--5-5--4-4--3-3-2-2-|-7-7--5-5--4-4--3-3-3-3-2-2-2-2-
|-5-5--3-3--2-2--1-1-0-0-|-5-5--3-3--2-2--1-1-1-1-0-0-0-0-

Outro Part 1 several times
|--------------------------------------------------
|--------------------------------------------------
|-7-7-7--7-7-5-5-5--5-5-4-4-4--4-4-3-3-3-3-2-2-2-2-
|-7-7-7--7-7-5-5-5--5-5-4-4-4--4-4-3-3-3-3-2-2-2-2-
|-5-5-5--5-5-3-3-3--3-3-2-2-2--2-2-1-1-1-1-0-0-0-0-

Outro Part 2 (Cont'd) (Several times after First outro part
|----------------------------------------------
|----------------------------------------------
|----------------------------------------------
|-7-7--7-7-5-5--5-5-4-4-4--4-4-3-3-3-3-2-2-2-2-
|-7-7--7-7-5-5--5-5-4-4-4--4-4-3-3-3-3-2-2-2-2-
|-5-5--5-5-3-3--3-3-2-2-2--2-2-1-1-1-1-0-0-0-0-

Ends with

|-----
|-----
|-----
|-7-7-
|-7-7-
|-5-5-  Let it ring


Lyrics

Verse I    	I'm having trouble trying to sleep
		I'm counting sheep and i'm running out
		As time ticks by, and still I try
		No rest for crosstops in my mind
		   On my own here we go...

Verse II	My eyes feel like they're gonna bleed
		Dried up and bulging out my skull
		My mouth is dry, my face is numb
		****ed up and spun out in my room
		   On my own here we go...

Verse III	My mind is set on overdrive
		The clock is laughing in my face
		A cooked spine, my senses dulled
		Passed the point of delerium
		On my own, here we go

Verse IV 	I'm having trouble trying to sleep
		I'm counting sheep and i'm running out
		As time ticks by, and still I try
		No rest for crosstops in my mind
		   On my own here we go...



_______________________________________________________________________________________

Track 09. Basket Case (Tabbed by Liam (guitar_rocker_47@hotmail.com)) 
_______________________________________________________________________________________
Tuning Down half a step

Verse
e|---------------------|------------------|---------------------|------------------|
b|---------------------|------------------|---------------------|------------------|
g|-9--------------9----|------------------|-6-------6-------6---|------------------|
D|-9--9-9-9-9-9-9-9--9-|------9---------9-|-6--6-6--6--6-6--6--6|------6---------6-|
a|-7--7-7-7-7-7-7-7--9-|-9-9--9--9-9-9--9-|-4--4-4--4--4-4--4--6|-6-6--6--6-6-6--6-|
e|-------------------7-|-7-7--7--7-7-7--7-|--------------------4|-4-4--4--4-4-4--4-|
PM    ***********        ***     *****         ***     ***        ***     *****      

e|---------------------|------------------|--------------------|-------------------|
b|---------------------|------------------|--------------------|-------------------|
g|-------------------9-|------9---------9-|--------------------|-------------------|
D|------7-------7--9-9-|-9-9--9--9-9-9--9-|------9-----------9-|-----9---------9--9|
a|-7-7--7--7-7--7--7-7-|-7-7--7--7-7-7--7-|-9-9--9--9-9-9-9--9-|9-9--9--9-9-9--9--7|
e|-5-5--5--5-5--5------|------------------|-7-7--7--7-7-7-7--7-|7-7--7--7-7-7--7---|
PM ***     ***     *     ***     *****      ***     *******      ***     *****     * 

Chorus
e|--------------------|---------------------|-------------------|-------------------|
b|--------------------|---------------------|-------------------|-------------------|
g|--------------------|---------------------|-----9-----------9-|-----9---------9---|
d|-----7-------7-----9|------9---------9--9-|9-9--9--9-9-9-9--9-|-9-9-9--9-9-9--9--9|
a|7-7--7--7-7--7--9--9|-9-9--9--9-9-9--9--7-|7-7--7--7-7-7-7--7-|-7-7-7--7-7-7--7--7|
e|5-5--5--5-5--5--7--7|-7-7--7--7-7-7--7----|-------------------|-------------------|
PM ***    ***     *     ***     *****     *******    *******      ***    *****     *

e|--------------------|---------------------|-------------------|-------------------|
b|--------------------|---------------------|-------------------|-------------------|
g|--------------------|---------------------|-----9-----------9-|-----9---------9---|
d|-----7-------7-----9|------9---------9--9-|9-9--9--9-9-9-9--9-|-9-9-9--9-9-9--9--9|
a|7-7--7--7-7--7--9--9|-9-9--9--9-9-9--9--7-|7-7--7--7-7-7-7--7-|-7-7-7--7-7-7--7--7|
e|5-5--5--5-5--5--7--7|-7-7--7--7-7-7--7----|-------------------|-------------------|
PM ***    ***     *     ***     *****     *******    *******      ***    *****     *

e|----------------------|---------------------|
b|----------------------|---------------------|
g|----------------------|---------------------|
d|------7-------7-----9-|------9---------9--9-|
a|-7-7--7--7-7--7--9--9-|-9-9--9--9-9-9--9--7-|
e|-5-5--5--5-5--5--7--7-|-7-7--7--7-7-7--7----|
PM ***     ***     *      ***     *****     *

Post Chorus
e|------------------------------------------------------------------|
B|-9--7-7--x--5--5--5--5--5--5--5-----------------------------------|
G|-9--7-7--x--6--6--6--6--6--6--6-------------------------------9-9-|
D|-9--7-7--x--6--6--6--6--6--6--6--7-7-------------9-9-9-9-9-9--9-9-|
A|-7--5-5--x--4--4--4--4--4--4--4--7-7--7-7-7-7-7--9-9-9-9-9-9--7-7-|
E|---------------------------------5-5--5-5-5-5-5--7-7-7-7-7-7------|
PM                                      *********

Coda
e|----------------------------|----------------------------|
B|-9-x-x--4-x-x--5-x-x--4-4-4-|-9-x-x--4-x-x--5-x-x--4-4-4-|
G|-9-x-x--4-x-x--6-x-x--4-4-4-|-9-x-x--4-x-x--6-x-x--4-4-4-|
D|-9-x-x--4-x-x--6-x-x--4-4-4-|-9-x-x--4-x-x--6-x-x--4-4-4-|
A|-7-x-x--2-x-x--4-x-x--2-2-2-|-7-x-x--2-x-x--4-x-x--2-2-2-|
E|----------------------------|----------------------------|

Verse 2
e|-0--0--0--0----------------------|----------------------------------------------|
B|-0--0--0--0--x--4-4-4-4-4-4--x-x-|----------------------------------------------|
G|-1--1--1--1--x--4-4-4-4-4-4--x-x-|-6-6-6-6--------------------------9-9-9-9-9-9-|
D|-2--2--2--2--x--4-4-4-4-4-4--x-x-|-6-6-6-6-x-6-6-6-6-6-6--7-7-7-7-x-9-9-9-9-9-9-|
A|-2--2--2--2--x--2-2-2-2-2-2--x-x-|-4-4-4-4-x-6-6-6-6-6-6--7-7-7-7-x-7-7-7-7-7-7-|
E|-0--0--0--0----------------------|---------x-4-4-4-4-4-4--5-5-5-5-x-------------|

e|---------------------|
B|---------------------|
G|---------------------|
D|-9-9-9-9-9-9-9-9-9-9-|
A|-9-9-9-9-9-9-9-9-9-9-|
E|-7-7-7-7-7-7-7-7-7-7-|

Chorus 2
e|--------------------------------|-------------------------------|
B|--------------------------------|9--9--9--9-x-10-10-10-10-10-10-|
G|--------------------------------|9--9--9--9-x--9--9--9--9--9--9-|
D|-7--7--7--7-----9--9-9-9--9--9--|9--9--9--9-x--9--9--9--9--9--9-|
A|-7--7--7--7-----9--9-9-9--9--9--|7--7--7--7-x--7--7--7--7--7--7-|
E|-5--5--5--5--0--7--7-7-7--7--7--|-------------------------------|

e|----------------------|-------------------------------|---------------------|
B|----------------------|9--9--9--9-x-10-10-10-10-10-10-|---------------------|
G|----------------------|9--9--9--9-x--9--9--9--9--9--9-|---------------------|
D|7-7-7-7---9-9-9-9-9-9-|9--9--9--9-x--9--9--9--9--9--9-|7-7-7-7---9-9-9-9-9-9|
A|7-7-7-7---9-9-9-9-9-9-|7--7--7--7-x--7--7--7--7--7--7-|7-7-7-7---9-9-9-9-9-9|
E|5-5-5-5-0-7-7-7-7-7-7-|-------------------------------|5-5-5-5-0-7-7-7-7-7-7|

Bridge
e|-----------------------------------|-------------------|
B|-----------------------------------|-------------------|
G|-----------------------------------|-------------------|
D|-7---------------------------------|-9-9-9-9-9-9-9-9-9-|
A|-7---7-7-7-7-7-7-7-7-7-7-7-7-7-7-7-|-9-9-9-9-9-9-9-9-9-|
E|-5---5-5-5-5-5-5-5-5-5-5-5-5-5-5-5-|-7-7-7-7-7-7-7-7-7-|
PM     *****************************

Pre Outro (there are two guitars tracks here)

Guitar 1 (when playing live this is usually pre recorded)
e|---0-----0----|---------0----|------------------------------|
B|------0-----0-|------------0-|------------------------------|
G|-1----2-------|------------x-|-------9-9-x------------------|
D|-2------------|-------6----7-|-7--7--9-9-x--9-9-9-9-9-9-9-9-|
A|--------------|-4--4--4------|-7--7--7-7-x--9-9-9-9-9-9-9-9-|
E|--------------|--------------|-5--5---------7-7-7-7-7-7-7-7-|

Guitar 2 (Billie usually plays this live)
E|--------------|--------------|------------------------------|
B|--------------|--------------|------------------------------|
G|--9-9-9--9-9--|--6-6-6--6-6--|-------9-9-x------------------|
D|--9-9-9--9-9--|--6-6-6--6-6--|-7--7--9-9-x--9-9-9-9-9-9-9-9-|
A|--7-7-7--7-7--|--4-4-4--4-4--|-7--7--7-7-x--9-9-9-9-9-9-9-9-|
E|--------------|--------------|-5--5---------7-7-7-7-7-7-7-7-|

Outro
Guitar 1 (when playing live this is usually pre recorded)
e|---0-----0---|----------0----|-------------|
B|------0----0-|-------------0-|-------------|
G|-1----2------|-------------x-|-----9-------|
D|-2-----------|-6-(6)--6----7-|-7---9--9~~--|
A|-------------|-4-(4)--4------|-7---7--9~~--|
E|-------------|---------------|-5------7~~--|

Guitar 2 (Billie usually plays this live)
E|-------------|---------------|-------------------------------|
B|-------------|---------------|-------------------------------|
G|-9-9-9--9-9--|--6-6-6--6-6---|-----9---------------2-----4~~-|
D|-9-9-9--9-9--|--6-6-6--6-6---|-7---9--9~~----------2--2--4~~-|
A|-7-7-7--7-7--|--4-4-4--4-4---|-7---7--9~~----------0--2--2~~-|
E|-------------|---------------|-5------7~~--16\7p0-----0------|


Order

Verse x2
Chorus x2
Post chorus
Coda
Verse 2 x2
Chorus 2
Post chorus
Coda x2
Bridge
Verse 2 x2
Chorus
Post Chorus
Pre Outro x3
Outro


(Lyrics)

(Verse)
Do you have the time, to listen to me whine?
About nothing and everything, all at once
I am one of those - Melodramatic fools
Neurotic to the bone - No doubt about it

(Chorus)
Sometimes I give myself the creeps
Sometimes my mind plays tricks on me
It all keeps adding up               

(Post chorus)
I think I'm crackin' up
Am I just paranoid?
Am I just stoned?

(Coda)

(Verse 2)
I went to a shrink - To analyse my dreams
She says it's lack of sex - That's bringing me down
I went to a whore - He said my life's a bore
So quit my whining - Cos' it's bringing her down

(Chorus 2)
Sometimes I give myself the creeps
Sometimes my mind plays tricks on me
It all keeps adding up               

(Post chorus)
I think I'm crackin' up
Am I just paranoid?
Am I just a ya ya yeah!

(Coda)
Oi, oi

(Bridge)
Grasping to control - so I better hold on

(Verse with no lyrics)

(Chorus)
Sometimes I give myself the creeps
Sometimes my mind plays tricks on me
It all keeps adding up  

(Post chorus)
I think I'm crackin' up
Am I just paranoid?
Am I just stoned?             

(Outro's)

_____________________________________________________________________________________

Track 10. King For A Day (Tabbed by Liam ((guitar_rocker_47@hotmail.com))
			 (Lyrics by Oystreck (aoystreck@geocities.com))
_____________________________________________________________________________________



Verse/chorus
E|----------------------------|----------------------------|
B|----------------------------|----------------------------|
G|-9-x-x---------9-x-x--------|-6-x-x---------6-x-x--------|
D|-9-x-x--9-9-9--9-x-x--9-9-9-|-6-x-x--6-6-6--6-x-x--6-6-6-|
A|-7-x-x--9-9-9--7-x-x--9-9-9-|-4-x-x--6-6-6--4-x-x--6-6-6-|
E|--------7-7-7---------7-7-7-|--------4-4-4---------4-4-4-|

Fill 1
E|---------------------|
B|---------------------|
G|-6-6-6-6-6-6-6-6-6-6-|
D|-6-6-6-6-6-6-6-6-6-6-|
A|-4-4-4-4-4-4-4-4-4-4-|
E|---------------------|	

Pre Chorus
E|------------------------------------------|
B|------------------------------------------|
G|------------------------------------------|
D|-7-7-7-7-7-7-7-7-7-7--9-9-9-9-9-9-9-9-9-9-|
A|-7-7-7-7-7-7-7-7-7-7--9-9-9-9-9-9-9-9-9-9-|
E|-5-5-5-5-5-5-5-5-5-5--7-7-7-7-7-7-7-7-7-7-|

Post chorus
E|------------------------------------------|
B|------------------------------------------|
G|------------------------------------------|
D|-7-7-7-7-7-7-7-7-7-7--9-9-9-9-9-9-9-9-9-9-|
A|-7-7-7-7-7-7-7-7-7-7--9-9-9-9-9-9-9-9-9-9-|
E|-5-5-5-5-5-5-5-5-5-5--7-7-7-7-7-7-7-7-7-7-|

Order

Verse x6 (palm mute all)
Fill 1
Pre Chorus x4
Chorus x3
Post Chorus
Verse x6 (palm mute all)
Fill 1
Pre Chorus x4
Chorus x3
Post Chorus
Verse x8 (palm mute all)
Fill 1
Pre Chorus x4
Chorus x7
Post Chorus x3
Verse x9 (palm mute all)



Lyrics (I've changed it slightly)

Verse
Started at the age of four
My mother went to the grocery store
Went sneaking through her bedroom door
To find something in a size four...


Chorus:			
Sugar and spice, and everything nice
wasn't meant for only girls
GI Joe in pantyhose is
making room for the one and only

King for a day! princess by dawn
King for a day! in a leather thong
King for a day! princess by dawn
Just wait till all the guys get a load of me


Verse
My daddy threw me in therapy
He thinks I'm not a real man
Who put the drag in the drag queen
Don't knock it until you tried it


Chorus:			
Sugar and spice, and everything nice
wasn't meant for only girls
GI Joe in pantyhose is
making room for the one and only

King for a day! princess by dawn
King for a day! in a leather thong
King for a day! princess by dawn
Just wait till all the guys get a load of me


----------------------------------------------------------------
Shout (i'll up date it when i get hold of my electric guitar)
----------------------------------------------------------------



______________________________________________________________________________________

Wake Me Up When September Ends (Tabbed by Dan Benz (DanSumthing@wi.rr.com)
			       (Lyrics by me)
______________________________________________________________________________________


C    - |x32010|   Em - |022000|   
Cm   - |x35543|   Bm - |x24432|   
G    - |3x0033|   D  - |xx0232| 
G/Gb - |200033|    



{Intro (acoustic)
{e| |----------------|----------------|----------------|----------------|
{B| |----3-----3-----|----3-----3-----|----3-----3-----|----3-----3-----|
{G| |--0-----0-------|--0-----0-------|--0-----0-------|--0-----0-------|
{D| |5-----5---------|5-----5---------|5-----5---------|5-----5---------|
{A| |----------------|----------------|----------------|----------------|
{E| |----------------|----------------|----------------|----------------|

{Verse 1
{e| |----------------|----------------|----------------|----------------|
{B| |----3-----3-----|----3-----3-----|----3-----3-----|----3-----3-----|
{G| |--0-----0-------|--0-----0-------|--0-----0-------|--0-----0-------|
{D| |5-----5---------|4-----4---------|2-----2---------|0-----0---------|
{A| |----------------|----------------|----------------|----------------|
{E| |----------------|----------------|----------------|----------------|
{
{    C                Cm               G                G
{e| |----------------|----------------|----------------|----------------|
{B| |----5-----5-----|----4-----4-----|----3-----3-----|----3-----3-----|
{G| |----5-5---5---5-|--5---5---5---0-|----0-0---0---0-|----0-0---0---0-|
{D| |--5-------5-----|--------5-----0-|--0-------0-----|--0-------0-----|
{A| |3-------3-------|3---------------|----------------|----------------|
{E| |----------------|----------------|3-------3-------|3-------3-------|
                                                   
Repeat Verse 1 except final measure, then              G       G/Gb     
                                          play         |----3-----------|
                                               this >  |----3-------3-0-|
                                                    >  |----0-0-----0---|
                                                    >  |--0-------------|
                                                       |----------0-----|
                                                       |3-------2-------|
Bridge
     Em               Bm               C                G       G/Gb 
 e| |----------------|----------------|----0-----0-----|----3-----------|
 B| |----0-----0-----|----3-----3-----|----1-1---1-----|----3-------3-0-|
 G| |----0-0---0-----|----4-----4-----|--0-------0---0-|----0-0-----0---|
 D| |--2-------2---0-|--4---4-------4-|--------------0-|--0-------------|
 A| |----------------|2-------2-------|3-------3-------|----------0-----|
 E| |0-------0-------|----------------|----------------|3-------2-------|
                  
     Em               Bm               C                D 
 e| |----------------|----------------|----0-----0-----|----2-----2-----|
 B| |----0-----0-----|----3-----3-----|----1-1---1-----|----3-3---3-----|
 G| |----0-0---0-----|----4-----4-----|--0-------0---0-|--2---2---2---0-|
 D| |--2-------2---0-|--4---4-------4-|----------------|0-------0-------|
 A| |----------------|2-------2-------|3-------3-------|----------------|
 E| |0-------0-------|----------------|----------------|----------------|

Repeat Verse 1

Repeat Intro

W/Distortion,
Play 2 measures of Intro, then play
the first 4 measures of Verse 1

{Chorus
{    C                Cm               G5
{e| |----------------|----------------|----------------|----------------|
{B| |5-5-5-5-5-5-5-5-|4-4-4-4-4-4-4-4-|----------------|----------------|
{G| |5-5-5-5-5-5-5-5-|5-5-5-5-5-5-5-5-|----------------|----------------|
{D| |5-5-5-5-5-5-5-5-|5-5-5-5-5-5-5-5-|5-5-5-5-5-5-5-5-|5-5-5-5-5-5-5-5-|
{A| |3-3-3-3-3-3-3-3-|3-3-3-3-3-3-3-3-|5-5-5-5-5-5-5-5-|5-5-5-5-5-5-5-5-|
{E| |----------------|----------------|3-3-3-3-3-3-3-3-|3-3-3-3-3-3-3-3-|

Play the first 4 measures of Verse 1, then,

     C                Cm               G5                       G5/Gb
 e| |----------------|----------------|----------------|----------------|
 B| |5-5-5-5-5-5-5-5-|4-4-4-4-4-4-4-4-|----------------|----------------|
 G| |5-5-5-5-5-5-5-5-|5-5-5-5-5-5-5-5-|----------------|----------------|
 D| |5-5-5-5-5-5-5-5-|5-5-5-5-5-5-5-5-|5-5-5-5-5-5-5-5-|5-5-5-5-5-5-5-5-|
 A| |3-3-3-3-3-3-3-3-|3-3-3-3-3-3-3-3-|5-5-5-5-5-5-5-5-|5-5-5-5-5-5-5-5-|
 E| |----------------|----------------|3-3-3-3-3-3-3-3-|3-3-3-3-2-2-2-2-|

Distorted Bridge
     E5               Bm               C5               G5      G5/Gb 
 e| |----------------|----------------|----------------|----------------|
 B| |----------------|----3-----------|----------------|----------------|
 G| |----------------|4-4-4-4-4-4-4-0-|5-5-5-5-5-5-5-0-|----------------|
 D| |2-2-2-2-2-2-2-2-|4-4-4-4-4-4-4-0-|5-5-5-5-5-5-5-0-|5-5-5-5-5-5-5-0-|
 A| |2-2-2-2-2-2-2-2-|2-2-2-2-2-2-2-0-|3-3-3-3-3-3-3-0-|5-5-5-5-5-5-5-0-|
 E| |0-0-0-0-0-0-0-0-|----------------|----------------|3-3-3-3-2-2-2-0-|

     E5               Bm               C5               D5            
 e| |----------------|----------------|----------------|----------------|
 B| |----------------|----3-3-3-3-3---|----------------|----------------|
 G| |----------------|4-4-4-4-4-4-4-0-|5-5-5-5-5-5-5-5-|7-7-7-7-7-7-7-7-|
 D| |2-2-2-2-2-2-2-2-|4-4-4-4-4-4-4-0-|5-5-5-5-5-5-5-5-|7-7-7-7-7-7-7-7-|
 A| |2-2-2-2-2-2-2-2-|2-2-2-2-2-2-2-0-|3-3-3-3-3-3-3-3-|5-5-5-5-5-5-5-5-|
 E| |0-0-0-0-0-0-0-0-|----------------|----------------|----------------|

 e| |----------------|------------3---|----------------|----------------|
 B| |----3-----3-----|----3-----3-----|----3-----3-----|----3-----3-----|
 G| |--0-----0-------|--0-----0-------|--0-----0-------|--0-----0-------|
 D| |5-----5---------|4-----4---------|2-----2---------|0-----0---------|
 A| |----------------|----------------|----------------|----------------|
 E| |----------------|----------------|----------------|----------------|

     C                Cm               G5                       G5/Gb
 e| |----------------|----------------|----------------|----------------|
 B| |5-5-5-5-5-5-5-5-|4-4-4-4-4-4-4-4-|----------------|----------------|
 G| |5-5-5-5-5-5-5-5-|5-5-5-5-5-5-5-5-|----------------|----------------|
 D| |5-5-5-5-5-5-5-5-|5-5-5-5-5-5-5-5-|5-5-5-5-5-5-5-5-|5-5-5-5-5-5-5-5-|
 A| |3-3-3-3-3-3-3-3-|3-3-3-3-3-3-3-3-|5-5-5-5-5-5-5-5-|5-5-5-5-5-5-5-5-|
 E| |----------------|----------------|3-3-3-3-3-3-3-3-|3-3-3-3-2-2-2-2-|

{Solo 
{Guitar1                                
{e| |----------------|----------------|----------------|----------------|
{B| |----12----12--12|----12----12--12|----13----13--13|1515151515151515|
{G|/|1212--1212--12--|1111--1111--11--|1212--1212--12--|1212121211111111|
{D| |----------------|----------------|----------------|----------------|
{A| |----------------|----------------|----------------|----------------|
{E| |----------------|----------------|----------------|----------------|
{
{e| |----------------|----------------|----------------|----------------|
{B| |----12----12--12|----12----12--12|----13----13--13|1515151515151515|
{G| |1212--1212--12--|1111--1111--11--|1212--1212--12--|1212121212121212|
{D| |----------------|----------------|----------------|----------------|
{A| |----------------|----------------|----------------|----------------|
{E| |----------------|----------------|----------------|----------------|
{
{e| |----------------|----------------|----------------|
{B| |1515151515151515|1515151515151515|1515151515151515|
{G| |1111111111111111|1212121212121212|1111111111111111| Go to the next
{D| |----------------|----------------|----------------| Guitar1 section
{A| |----------------|----------------|----------------|
{E| |----------------|----------------|----------------|

{Guitar2 (Rhythm Guitar) during the Solo
{    E5               Bm               C5               G5      G5/Gb 
{e| |----------------|----------------|----------------|----------------|
{B| |----------------|----3-----------|----------------|----------------|
{G| |----------------|4-4-4-4-4-4-4-0-|5-5-5-5-5-5-5-0-|----------------|
{D| |2-2-2-2-2-2-2-2-|4-4-4-4-4-4-4-0-|5-5-5-5-5-5-5-0-|5-5-5-5-5-5-5-5-|
{A| |2-2-2-2-2-2-2-2-|2-2-2-2-2-2-2-0-|3-3-3-3-3-3-3-0-|5-5-5-5-5-5-5-5-|
{E| |0-0-0-0-0-0-0-0-|----------------|----------------|3-3-3-3-2-2-2-2-|
{
{    E5               Bm               C5               D5            
{e| |----------------|----------------|----------------|----------------|
{B| |----------------|----3-----------|----------------|3-3-3-3-3-3-3-3-|
{G| |----------------|4-4-4-4-4-4-4-0-|5-5-5-5-5-5-5-5-|2-2-2-2-2-2-2-2-|
{D| |2-2-2-2-2-2-2-2-|4-4-4-4-4-4-4-0-|5-5-5-5-5-5-5-5-|0-0-0-0-0-0-0-0-|
{A| |2-2-2-2-2-2-2-2-|2-2-2-2-2-2-2-0-|3-3-3-3-3-3-3-3-|----------------|
{E| |0-0-0-0-0-0-0-0-|----------------|----------------|----------------|
{
{    D5            
{e| |----------------|----------------|----------------|
{B| |3-3-3-3-3-3-3-3-|3-3-3-3-3-3-3-3-|3-3-3-3-3-3-3-3-|
{G| |2-2-2-2-2-2-2-2-|2-2-2-2-2-2-2-2-|2-2-2-2-2-2-2-2-|
{D| |0-0-0-0-0-0-0-0-|0-0-0-0-0-0-0-0-|0-0-0-0-0-0-0-0-|
{A| |----------------|----------------|----------------|
{E| |----------------|----------------|----------------|

Guitar2 (still w/distortion)
     G
 e| |3---------------|
 B| |3---------------|
 G| |0---------------|
 D| |----------------|
 A| |----------------|
 E| |----------------|

{Guitar1 (clean/acoustic)
{e| |----------------|----------------|----------------|----------------|
{B| |----3-----3-----|----3-----3-----|----3-----3-----|----3-----3-----|
{G| |--0-----0-------|--0-----0-------|--0-----0-------|--0-----0-------|
{D| |5-----5---------|5-----5---------|5-----5---------|5-----5---------|
{A| |----------------|----------------|----------------|----------------|
{E| |----------------|----------------|----------------|----------------|
{
{e| |----------------|----------------|----------------|----------------|
{B| |----3-----3-----|----3-----3-----|----3-----3-----|----3-----3-----|
{G| |--0-----0-------|--0-----0-------|--0-----0-------|--0-----0-------|
{D| |5-----5---------|4-----4---------|2-----2---------|0-----0---------|
{A| |----------------|----------------|----------------|----------------|
{E| |----------------|----------------|----------------|----------------|

W/Distortion for the rest of the song,
Play the Chorus, 

Play the first 4 measures of Verse 1, 

Repeat the Chorus 2X,

End with:
     C                Cm               G5
 e| |----------------|----------------|----------------|----------------|
 B| |5-5-5-5-5-5-5-5-|4-4-4-4-4-4-4-4-|----------------|----------------|
 G| |5-5-5-5-5-5-5-5-|5-5-5-5-5-5-5-5-|----------------|----------------|
 D| |5-5-5-5-5-5-5-5-|5-5-5-5-5-5-5-5-|5-5-5-5-5-5-5-5-|5---------------|
 A| |3-3-3-3-3-3-3-3-|3-3-3-3-3-3-3-3-|5-5-5-5-5-5-5-5-|5---------------|
 E| |----------------|----------------|3-3-3-3-3-3-3-3-|3---------------|

Lyrics

Verse I 	Summer has come and passed, the innocent can never last
		Wake me up, when September ends
		like my father's come to pass, seven years had gone so fast
		Wake me up, when September ends

Chorus		Here somes the rain again, falling from the stars
		Drenched in my pain again, becoming who we are
		As my memory rests, but never forgets what I've lost
		Wake me up, when September ends

Verse II	Summer has come and past, the Innocent can never last
		Wake me up, when September ends
		Ring out the bells again, like we did when spring began
		Wake me up, when September ends

Chorus		Here somes the rain again, falling from the stars
		Drenched in my pain again, becoming who we are
		As my memory rests, but never forgets what I've lost
		Wake me up, when September ends

Verse III 	Summer has come and passed, the innocent can never last
		Wake me up, when September ends
		like my father's come to pass, TWENTY years had gone so fast
		Wake me up, when September ends
		Wake me up, when September ends
		Wake me up, when September ends

_____________________________________________________________________________________

Track 12. Minority (Tabbed by Liam (guitar_rocker_47@hotmail.com))
		   (Lyrics by me)
_____________________________________________________________________________________
Tuning: Standard

Intro
E|---------|---------|------0--|----------|----------|---------|-----------|
B|------1--|------3--|--1----1-|------1---|------1---|------3--|-----------|
G|---0---0-|---0---0-|----2----|--------0-|--------0-|---0---0-|-2-0---0---|
D|-----2---|----0----|-3-------|-0h2------|-0h2------|----0----|-3-2-0-2---|
A|--3------|---------|---------|-----3----|-----3----|---------|-------3---|
E|---------|-3-------|---------|----------|----------|-3-------|-----------|

Chorus
E|--------------------------------------------------------|
B|--------------------------------------------------------|
G|x-x-5-5-5-5--------------------------------------------|
D|x-x-5-5-5-5--3-3-3-3--5-5-5-5--3-3-3-3-----------------|
A|x-x-3-3-3-3--3-3-3-3--5-5-5-5--3-3-3-3-----------------|
E|--------------1-1-1-1--3-3-3-3--1-1-1-1-----------------|
   

Verse  I got the verse chords and order of play off a buddy he says there right but I don't
know the rhythm so if any one does could you please email me with it.
   
    C  G5 Fmaj7  C  C G5  F  G
E|------------------------1--3--- 
B|--1--3---1-----1--1--3--1--3--- 
G|--0--0---2-----0--0--0--2--0--- 
D|--2--0---0-----2--2--0--3--0--- 
A|--3--x---3-----3--3--x-----2--- 
E|-----3---------------3-----3--- 
   
    C  G5 Fmaj7  C  C  F  G5 C
E|---------------------1--------- 
B|--1--3---1-----1--1--1--3--1--- 
G|--0--0---2-----0--0--2--0--0--- 
D|--2--0---0-----2--2--3--0--2--- 
A|--3--x---3-----3--3-----x--3--- 
E|-----3------------------3------ 

Bridge

E-----------------------------------------------------------------------------------|
B-----------------------------------------------------------------------------------|
G-----------------9---10-10-10-10---------------------------------------------------|
D--7-7-7-7-7-7-7--9---10-10-10-10--10-10-10-10---7-7-7-7-7-7-7--2--3-3-3-3--5-5-5-5-|
A--7-7-7-7-7-7-7--7---8--8--8--8---10-10-10-10---7-7-7-7-7-7-7--2--3-3-3-3--5-5-5-5-|
E--5-5-5-5-5-5-5-------------------8--8--8--8----5-5-5-5-5-5-5--0--1-1-1-1--3-3-3-3-|

E|-------------------------------------------------------------------------------------------|
B|-------------------------------------------------------------------------------------------|
G|---------------9--10-10-10-10------------------------------------------------------------4-|
D|-7-7-7-7-7-7-7-9--10-10-10-10--10-10-10-10--7-7-7-7-7-7-7--3--5-5-x-x-5-5-x-x-5-5-5-5-5--4-|
A|-7-7-7-7-7-7-7-7--8--8--8--8---10-10-10-10--7-7-7-7-7-7-7--3--5-5-x-x-5-5-x-x-5-5-5-5-5--2-|
E|-5-5-5-5-5-5-5-----------------8--8--8--8---5-5-5-5-5-5-5--1--3-3-x-x-3-3-x-x-3-3-3-3-3----|


Solo (chorus chords played in background)
E-----------8-----------------------8----8-----8---
B--5--6--8-----8--6--5-----5--6--8-----6----6------
G-----------------------5--------------------------
D--------------------------------------------------
A--------------------------------------------------
E--------------------------------------------------

Intro   (acoustic guitar)
Chorus   x4
Verse
Chorus   x4
Bridge
Verse   (with accordion played in the background)
Chorus   x4
Bridge  (with no lyrics)
Verse   (again with accordion)
Chorus   x4
Solo    (with chorus played x4 in background)

Play  A |355xxx|
Intro   (acoustic guitar)

Lyrics

Chorus          I want to be the minority
		I don't need your authorities
		Down with the moral majority 'cause
		I want to be the minority

Verse I		I pledge, the allegiance, to the underworld
		One nation under pigs of which i stan alone
		A face in the crowd, unsung against the mold
		Without a doubt, singled out, the only way i know

Chorus          I want to be the minority
		I don't need your authorities
		Down with the moral majority 'cause
		I want to be the minority

Bridge		Stepped out of line
		Like a sheep runs fromt he herd
		Marching out of time
		To my own beat now-
		 the only way i know

Verse II	One light, one mind, flashing in the dark
		Blinded by the silences of thousand brocken hearts
		'for crying out loud' she screams onto me
		A free for all, **** them all, you're your own sight


Chorus          I want to be the minority
		I don't need your authorities
		Down with the moral majority 'cause
		I want to be the minority
		




_______________________________________________________________________________________

Track 13: Boulevard of Broken Dreams (Tabbed By reizig (reizig@gmail.com))
_______________________________________________________________________________________


Riff 1:                   
e|-----------------------|
B|--8-9---9/13-11---8-9--|
G|-----------------------|
D|-----------------------|
A|-----------------------|
E|-----------------------|

Riff 2:                         x3
e|------------------------------|
B|-------8-9---9/13-11---8-9--9-|
G|-10-10------------------------|
D|------------------------------|
A|------------------------------|
E|------------------------------|

e|---------------------------------------|
B|--------8-9--9/13-11-13-13-13-13-13-13-|
G|-10-10---------------------------------|
D|---------------------------------------|
A|---------------------------------------|
E|---------------------------------------|

e|---------------------------------------|
B|-13-13-13-13-13-13-13------------------|
G|---------------------------------------|
D|---------------------------------------|
A|---------------------------------------|
E|---------------------------------------|

Verse:

The verse chords on the album are actually played with a 
capo on the first fret as open chords (Em G D A), but 
they're tabbed here for use without a capo.

    Fm   G#   D#   A#     A# A# C5 <- Played over the end of 
e|--1----4----6----6---|------------|  the last repitition before
B|--1----4----8----6---|------------|    chorus (distored).
G|--1----5----8----7---|--3--3--5---|
D|--3----6----8----8---|--3--3--5---|
A|--3----6----6----8---|--1--1--3---|
E|--1----4---------6---|------------|
                         (I walk a-)
Chorus:
    C#5  G#5  D#5  F5  x3  C#5  G#5  C5
e|---------------------------------------|
B|---------------------------------------|
G|--6---------8------------6---------5---|
D|--6----6----8----3-------6----6----5---|
A|--4----6----6----3-------4----6----3---|
E|-------4---------1------------4--------|

Outro:
Guitar 1                                                  x3
e|--------------------------------------------------------|
B|--------------------------------------------------------|
G|--------------------------------------------------------|
D|--------------------------------------------------------|
A|---------4--4--4--6--6--6--5--5--5----------------------|
E|-1--1--1-----------------------------4--4--4--0--0--0---|

Guitar 2 (strum fast)                                     x3
e|--------------------------------------------------------|
B|-------------------------------------16-16-16-17-17-17--|
G|-10-10-10-10-10-10-10-10-10-10-10-10-13-13-13-xx-xx-xx--|
D|-x--x--x--x--x--x--x--x--x--x--x--x-----------14-14-14--|
A|-8--8--8--8--8--8--8--8--8--8--8--8---------------------|
E|--------------------------------------------------------|

Guitar 1
e|-------------------------------------------------|
B|-------------------------------------------------|
G|-------------------------------------------------|
D|-------------------------------------6--6--2--2--|
A|---------4--4--4--6--6--6--5--5--5---6--6--2--2--|
E|-1--1--1-----------------------------4--4--0--0--|

Guitar 2 (strum fast)                                
e|--------------------------------------------------|
B|-------------------------------------16-16-17-17--|
G|-10-10-10-10-10-10-10-10-10-10-10-10-13-13-xx-xx--|
D|-x--x--x--x--x--x--x--x--x--x--x--x--------14-14--|
A|-8--8--8--8--8--8--8--8--8--8--8--8---------------|
E|--------------------------------------------------|

Order:

Verse (2x alone, 1x w/Riff 1)
Verse (2x alone, 2x w/Riff 1)
Chorus
Verse (4x alone, 1x w/Riff 1)
Verse (2x alone, 2x w/Riff 1)
Chorus
Verse x2
Chorus (w/Riff 2)
Verse x2
Chorus (w/end of Riff 2 after 2nd repeat)
Outro

Lyrics:


I walk a lonely road
The only one I that have ever known
Don't know were it goes
But its home to me and I walk alone

I walk this empty street
On the boulevard of broken dreams
Where the city sleeps
And I'm the only one and I walk alone
I walk alone I walk alone
I walk alone I walk a-

My shadows the only one that walks beside me
My shallow heart's the only thing that's beating
Sometimes I wish someone out there will find me
Till then I'll walk alone

I'm walking down the line
That divides me somewhere in my mind
On the border line of the edge
And were I walk alone

Read between the lines of what's
Fucked up and every things all right
Check my vital signs to know I'm still alive
And I walk alone
I walk alone I walk alone
I walk alone I walk a-

My shadows the only one that walks beside me
My shallow hearts the only thing that's beating
Sometimes I wish someone out there will find me
Till then I'll walk alone

I walk this empty street
On the boulevard of broken dreams
Where the city sleeps
And I'm the only one and I walk a-

My shadows the only one that walks beside me
My shallow hearts the only thing that's beating
Sometimes I wish someone out there will find me
Till then I'll walk alone

______________________________________________________________________________________

Track 14. Good Riddance (Time of Your Life) (Tabbed by meg42 (socrluv999@aol.com))
______________________________________________________________________________________


Note: I've been looking for a good tab for this song... cuz its an awesome guitar
part, but i couldnt find any that sounded right.  so, i did this and im positive
its perfect... i played it with the actual song and it fits perfectly.  if you
have any questions or comments feel free to email me

Tuning:eadgbe

INTRO:   

E|------------------------------|
B|------------------------------|
G|------0-------------------0---|
D|----0---0---------------0---0-|
A|------------------------------|
E|-3-------------------3--------|

  
E|--------------------------------------------------------|
B|------3-------------3-------------3-------------3-------|
G|----0---0---0-----0---0---0-----0---0---0-----2---2---2-|
D|----------0-------------0-------------2----0--------0---|
A|-----------------------------3--------------------------|
E|-3-------------3----------------------------------------| play twice



VERSE:
E|--------------------------------------------------------|
B|------3-------------3-------------3-------------3-------|
G|----0---0---0-----0---0---0-----0---0---0-----2---2---2-|
D|----------0-------------0-------------2----0--------0---|
A|-----------------------------3--------------------------|
E|-3-------------3----------------------------------------|

Another turning point a fork stuck in the road

E|--------------------------------------------------------|
B|------3-------------3-------------3-------------3-------|
G|----0---0---0-----0---0---0-----0---0---0-----2---2---2-|
D|----------0-------------0-------------2----0--------0---|
A|-----------------------------3--------------------------|
E|-3-------------3----------------------------------------|
  Time grabs you by the wrist directs you where to go

E|--------------------------------------------------------|
B|------0-------------3-------------3-------------3-------|
G|----0---0---0-----2---2---2-----0---0---0-----0---0---0-|
D|----------2----0--------0-------------2-------------0---|
A|-2---------------------------3--------------------------|
E|-------------------------------------------3------------|
  So make the best of this task and dont ask why

E|--------------------------------------------------------|
B|------0-------------3-------------3-------------3-------|
G|----0---0---0-----2---2---2-----0---0---0-----0---0---0-|
D|----------2----0--------0-------------2-------------0---|
A|-2---------------------------3--------------------------|
E|-------------------------------------------3------------|
  It's not a question but a lesson learned in time



CHORUS:

E|--------------------------------------------------------|
B|------0-------------3-------------0-------------3-------|
G|----0---0---0-----0---0---0-----0---0---0-----0---0---0-|
D|----------2-------------0-------------2-------------0---|
A|-2---------------------------2--------------------------|
E|---------------3---------------------------3------------|
  It's something unpredictable but in the end is right

E|--------------------------------------------------------|
B|------0-------------3-------------3---------------------|
G|----0---0---0-----2---2---2-----0---0---0---------------|
D|----------2----0--------0-------------0-----------------|
A|-2------------------------------------------------------|
E|-----------------------------3--------------------------|
  I hope you had the time of your life	

ok they start strumming here... i've played with the song and these chords are
right.  listen and play with the actual song to get the right rythms etc..
      G9    C9     D     G9    C9    D
E|----3------3-----2-----3-----3-----2----|
B|----3------3-----3-----3-----3-----3----|
G|----0------0-----2-----0-----0-----2----|
D|----0------2-----0-----0-----2-----0----|
A|----2------3-----x-----2-----3-----x----|
E|----3------x-----x-----3-----x-----x----|			

     G9                      C9                    D     
E|----3-----------------------3--------------------2----|
B|----3-----------------------3--------------------3----|
G|----0-----------------------0--------------------2----|
D|----0-----------------------2--------------------0----|
A|----2-----------------------3--------------------x----|
E|----3-----------------------x--------------------x----|	
  So take the photographs and still frames in your mind

     G9                      C9                    D     
E|----3-----------------------3--------------------2----|
B|----3-----------------------3--------------------3----|
G|----0-----------------------0--------------------2----|
D|----0-----------------------2--------------------0----|
A|----2-----------------------3--------------------x----|
E|----3-----------------------x--------------------x----|
    Hang it on the shelf with good health and good time

      Em        D             C          G9                       
E|----0---------2-------------0----------3-------|
B|----0---------3-------------1----------3-------|
G|----0---------2-------------0----------0-------|
D|----2---------0-------------2----------0-------|
A|----2---------x-------------3----------2-------|
E|----0---------x-------------x----------3-------|
    Tatoos and memories and dead skin on trial

      Em        D             C             G9                       
E|----0---------2-------------0-------------3-------|
B|----0---------3-------------1-------------3-------|
G|----0---------2-------------0-------------0-------|
D|----2---------0-------------2-------------0-------|
A|----2---------x-------------3-------------2-------|
E|----0---------x-------------x-------------3-------|
  For what its worth, it was worth all the while

      Em           G9           Em           G9                      
E|----0------------3-------------0------------3-------|
B|----0------------3-------------0------------3-------|
G|----0------------0-------------0------------0-------|
D|----2------------0-------------2------------0-------|
A|----2------------2-------------2------------2-------|
E|----0------------3-------------0------------3-------|
Its something unpredictable but in the end is right

      Em                D             G9   C9   D   G9    C9   D          
E|----0-----------------2-------------3----3----2----3----3----2---|
B|----0-----------------3-------------3----3----3----3----3----3---|
G|----0-----------------2-------------0----0----2----0----0----2---|
D|----2-----------------0-------------0----2----0----0----2----0---|
A|----2-----------------x-------------2----3----x----2----3----x---|
E|----0-----------------x-------------3----x----x----3----x----x---|
   I hope you had the time of your life (strum above chords until it reaches outro)

OUTRO:

E|------------------------------------------------------3-|
B|------3------------3------------3------------3--------3-|
G|----0---0---0----0---0---0----0---0---0----2---2-2----0-|
D|----------0------------0------------2----0---------0--0-|
A|----------------------------3-------------------------2-|
E|-3-------------3--------------------------------------3-|



| /  slide up
| \  slide down
| h  hammer-on
| p  pull-off
| ~  vibrato
| +  harmonic"
| x  Mute note

Lyrics

Verse I         Another turning point a fork stuck in the road
		Time grabs you by the wrist, directs you where to go
		So make the best of this test and don't ask why
		It's not a question but a lesson learnt in time

Chorus          It's something unpredictable but in the end it's right
		I hope you had the time of your life

Verse II	So take the photographs and still-frames in your mind
		Hang it on a shelf of good health and good time
		Tatoos of memories and dead skins on the trial
		For what it's worth, it was worth all the while

Chorus          It's something unpredictable but in the end it's right
		I hope you had the time of your life (3 times)
***********************************************************************
***********************************************************************

That's it! Took a little longer than i thought but i'm on Holiday and have the Time of My Life!

Anyone whose been to Green Day's show (i never have0 please give us a shout