Great Lake Swimmers - Various Stages Chords & Tabs

 

Various Stages Chords & Tabs

Great Lake Swimmers Chords & Tabs

Version: 1 Type: Chords

Various Stages Chords

   
Various Stages - Great Lake Swimmers
From the album Bodies and Minds
Tab by Gakc1

A simple yet beautiful song:

Intro/verse/bridge/outro:

  D      C      G

|-2-2222-0-0000-3-3333---------------------------------|
|-3-3333-1-1111-0-3333--------------------------------|
|-2-2222-0-0000-0-0000---------------------------------|
|-0-0000-2-2222-0-0000---------------------------------|
|--------3-3333-2-2222---------------------------------|
|---------------3-3333---------------------------------|
[ Tab from: https://www.guitartabs.cc/tabs/g/great_lake_swimmers/various_stages_crd.html ]
On transition from intro into verse, verse into chorus or bridge into verse repeat G.

Chorus:

  D      Am     Em

|-2-2222-0-0000-0-0000---------------------------------|
|-3-3333-1-1111-0-0000--------------------------------|
|-2-2222-2-2222-0-0000---------------------------------|
|-0-0000-2-2222-2-2222---------------------------------|
|--------0-0000-2-2222---------------------------------|
|--------0-0000-0-0000---------------------------------|

On transition from Chorus repeat Em.

Song Structure:

Intro
Verse
Chorus
Verse 
Chorus
Bridge
Verse 
Chorus
Outro