Grandaddy - Am 180 Chords & Tabs

 

Am 180 Chords & Tabs

Grandaddy Chords & Tabs

Version: 1 Type: Bass Tab

Am 180 Bass Tab

   
I first heard this song on the movie 28 Days Later and figured it would be pretty easy 
tab. It's a fun little song to play.


Intro/Verse 0:11
G|----------------------------------|x4
D|----------------------------------|
A|-1-1-1-1-2-2-2-2-3-3-3-3----------|
E|-------------------------1-1-1-1--|

Chorus 0:32
G|-----------------------------------------------------|x2
D|-----------------------------------------------------|
A|---------------------------1-1-1-1-1-1-1-1-1-1-1-1-1-|
E|-1-1-1-1-1-1-1-1-1-1-1-1-1---------------------------|

Back To Verse and Chorus  0:54
[ Tab from: https://www.guitartabs.cc/tabs/g/grandaddy/am_180_btab.html ]
1:36
G|---------------------------------|x1
D|---------------------------------|
A|-1-1-1-1-2-2-2-2-3-3-3-3---------|
E|-------------------------1-1-1-1-|

Thenů

1:41
G|---------------------------------| x1
D|---------------------------------|
A|-1-1-1-1-2-2-2-2-3-3-3-3-5-5-5-5-|
E|---------------------------------|


1:47
G|------------------------------------------------------|
D|------------------------------------------------------|
A|------------------------------------------------------|
E|-3-3-3-4-4-4-5-5-5-/-11-11-11-3-3-3-4-4-4-5-5-5-5-5-5-|

Back To Verse!

Break 2:18
|-------------------------| x2
|-------------------------|
|-----------3---------1---|
|-1-----------------------|

Back To Verse For The Last Time (Play Till Piano Outro)