Gorillaz - White Light Chords & Tabs

 

White Light Chords & Tabs

Gorillaz Chords & Tabs

Version: 4 Type: Bass Tab

White Light Bass Tab

GORILLAZ WHITE LIGHT BASS TAB

G|-------------|                           x1  
D|-------------| 
A|-------------|
E|-5-5-5-5-7---|

G|-------------------------|               X3
D|-------------------------|
A|-------------------------|
E|0-0-7-10--7-10--7-10-12-|
  
G|-------------|                           x1  
D|-------------| 
A|-------------|
E|-5-5-5-5-7---|

BREAK 11 SECS

G|-------------|                           x1  
D|-------------| 
A|-------------|
E|-5-5-5-5-7---|
 
G|-------------------------|               X3
D|-------------------------|
A|-------------------------|
E|0-0-7-10--7-10--7-10-12-|
[ Tab from: https://www.guitartabs.cc/tabs/g/gorillaz/white_light_btab_ver_4.html ]
G|-------------|                           x1  
D|-------------| 
A|-------------|
E|-5-5-5-5-7---|

G|-------------------------|               X3
D|-------------------------|
A|-------------------------|
E|0-0-7-10--7-10--7-10-12-|

G|-------------|                           x1  
D|-------------| 
A|-------------|
E|-5-5-5-5-7---|

BREAK 28 SECS

G|----------------------|                  x3
D|----------------------|
A|----------------------|
E|--0-0-0-0-3-3-5/7-----|

BREAK 1 SEC

G|-------------------------------------|   UNTIL THE END
D|-------------------------------------|
A|-------------------------------------|
E|--0-0-0-0-3-3-5/7--0-0-0-0--3-3-5-3--|