Gorillaz - Every Planet We Reach Is Dead Chords & Tabs

 

Every Planet We Reach Is Dead Chords & Tabs

Gorillaz Chords & Tabs

Version: 4 Type: Tab

Every Planet We Reach Is Dead Tab

---------------------------------------------------------------------
Every planet we reach is dead-Gorillaz
---------------------------------------------------------------------
Email:  gmfc_david_gmfc@yahoo.com
Tuning: Normal

Intro

E-------------------------------------------------|
B-3/5-5-0-3-50-3-5-------3/5-5-0-3-50-3-5-------|
G-------------------2-0------------------2-0------|
D-------------------------------------------------| x2
A-------------------------------------------------|
E-------------------------------------------------|

It gets slow at this point

Intro outro

E--------------------------------------|
B--------------------------------------|
G--------------------------------------|
D-2b-2-2-------------------------------|
A--------3-----------------------------|
E--------------------------------------|

Verse
[ Tab from: https://www.guitartabs.cc/tabs/g/gorillaz/every_planet_we_reach_is_dead_tab_ver_4.html ]
E --------------------------------------------------|
B---------------------------------------------------|
G---------------------------------------------------|
D---------------------------------------------------|
A-7----7----5----3---3----2-------------------------|
E --------------------------------------------------|

Outro of verse

Play intro 3 times then on the 4th play this

E|-------------------3--------------------------------------------------------|
B|-5-5-5-5-5-5-5----5-3-------------------------------------------------------|
G|---------------------------2-0----------------------------------------------|
D|----------------------------------------------------------------------------|
A|----------------------------------------------------------------------------|
E|----------------------------------------------------------------------------|

That is as much of the song I could tab, since the rest is a played by violins

Good song I made it as accurate as possible