Gorilla Biscuits - Start Today Chords & Tabs

 

Start Today Chords & Tabs

Gorilla Biscuits Chords & Tabs

Version: 1 Type: Bass Tab

Start Today Bass Tab

Artist: Gorilla Biscuit
Song: Start Today
Album: Start Today

Intro

G --------------------------------------------|
D --------------------------------------------|( First Time Guitar only)
A --4---4-4-4---4-4--4-4-4---4-4--4-4-4---4~--|
E --------------------------------------------|

Bass comes in here
G ----------------------------------------------------------|
D ----------------------------------------------------------| 
A --4---4-4-4---4-4--4-4-4---4-4--4-4-4---4------464--------|
E ---------------------------------------------46---64------|

        
Verse
G ------------------------------------------------------|
D ------------------------------------------------------|   4x
A --------------------------4---4-4-4---4---4-4-4---4---|
E --2---2-2-2---5---5-5-5-------------------------------|
        
Chorus

G ------------------------------------------------------------------------|
D ------------------------------------------------------------------------|
A 2222---------2222-----------2222---------------------2-2-2-2-----------|
E ---------4444----------04-05-------4444--5-5-5-5-5-5--------------------|
               

G ------------------------------------------------------|
D ------------------------------------------------------|
A --------------------------4---4-4-4---4---4-4-4---4---|
E --2---2-2-2---5---5-5-5-------------------------------|
        

G ----------------------------------------|
D ---------------------------------------|
A --------------------------4---4-4-4-4---|
E --2---2-2-2---5---5-5-5-----------------|
        
Verse
[ Tab from: https://www.guitartabs.cc/tabs/g/gorilla_biscuits/start_today_btab.html ]
G ------------------------------------------------------|   4x
D ------------------------------------------------------|
A --------------------------4---4-4-4---4---4-4-4---4---|
E --2---2-2-2---5---5-5-5-------------------------------|
        

Chorus

G ------------------------------------------------------------------------|
D ------------------------------------------------------------------------|
A 2222---------2222-----------2222---------------------2-2-2-2-----------|
E ---------4444----------04-05-------4444--5-5-5-5-5-5--------------------|


Bridge 2x
G ------------------------------------------------------------------------|
D ------------------------------------------------------------------------|
A ------------------------------------------------------------------------|
E --2-2-2-2---5-5-5-5---0-0---0-0---0-0---2-2-2-2---5-5-5-5---0-0---------|
    
G -------------------------------------------------------------------------|
D -------------------------------------------------------------------------|
A -------------------------------------------------------------------------|
E --2-2-2-2---5-5-5-5---0-0---0-0---0-0---2-2-2-2---5-5-5-5---0-0----------|
    
Verse

G ------------------------------------------------------|
D ------------------------------------------------------|   2x
A --------------------------4---4-4-4---4---4-4-4---4---|
E --2---2-2-2---5---5-5-5-------------------------------|
        
Chorus

G ------------------------------------------------------------------------|
D ------------------------------------------------------------------------|
A 2222---------2222-----------2222---------------------2-2-2-2-----------|
E ---------4444----------04-05-------4444--5-5-5-5-5-5--------------------|


Outro

G ----------------------------|
D ----------------------------|
A ----------------------------|
E --2-2-2-2---5-5-5-5---0-0---|