Goodnight Nurse - Our Song Chords & Tabs

 

Our Song Chords & Tabs

Goodnight Nurse Chords & Tabs

Version: 1 Type: Bass Tab

Our Song Bass Tab

Our Song by Goodnight Nurse
Itís a awesome song so check it out
Tuning: standard


Intro/verse
G|--12-12-12--77-7-7-/-12-12-12--77-7-7------------------|
D|--10-10-10--55-5-5-/-10-10-10--55-5-5------------------|
A|-------------------------------------------------------|
E|-------------------------------------------------------|

G|--9-9-9--77-7-7--9-9-9--11-11--11-11/------------------|
D|--7-7-7--55-5-5--7-7-7ó-9ó-9---9--9-/------------------|
A|-------------------------------------------------------|
E|-------------------------------------------------------|

Pre chorus
G|-------------------------------------------------------|
D|-------------------------------------------------------|
A|-------------------------------------------------------|
E|-11111111-3~-------------------------------------------|

chorus
G|-------------------------------------------------------|
D|-------------------------------------------------------|
A|--3-3-3--------3-3-3--10-10--10ó10---------------------|
E|--------33-3-3-----------------------------------------|

G|-------------------------------------------------------|
D|-------------------------------------------------------|
A|-------------------------------------------------------|
E|--5-5-5--33-3-3--5-5-5--33-3-3--11111111-3~------------|

play verse again
then pre chorus
chorus
[ Tab from: https://www.guitartabs.cc/tabs/g/goodnight_nurse/our_song_btab.html ]
Bridge
G|--------------------------------------------------------------|
D|--------------------------------------------------------------|
A|-7-7-7--55-5-5--3-3-3--22-2-2--3-3-3--55-5-5--3-3-3--88-8-8---|
E|--------------------------------------------------------------|

G|-------------------------------------------------------|
D|-------------------------------------------------------|
A|-7-7-7-55-5-5--3-3-3-22-2-2--3-3-3-55-5-5-3~-----------|
E|-------------------------------------------------------|

G|-------------------------------------------------------------------------|
D|-------------------------------------------------------------------------|
A|-3333333-22222222-333333333-22222222-------------------------------------|
E|------------------------------------55555555-77777777-55555555-77777777--|

G|-------------------------------------------------------|
D|-------------------------------------------------------|
A|-------------------------------------------------------|
E|-1111111111-3~-----------------------------------------|

chorus

Outro
G|--------------------------------------------------------------|
D|--------------------------------------------------------------|
A|-7-7-7--55-5-5--3-3-3--22-2-2--3-3-3--55-5-5--3-3-3--88-8-8---|
E|--------------------------------------------------------------|
G|--------------------------------------------------------------|
D|--------------------------------------------------------------|
A|-7-7-7--55-5-5--3-3-3--22-2-2--3-3-3--55-5-5--3-3-3--88-8-8---|
E|--------------------------------------------------------------|

G|-------------------------------------------------------|
D|-------------------------------------------------------|
A|-7-7-7-55-5-5--3-3-3-22-2-2--3-3-3-55-5-5-3~-----------|
E|-------------------------------------------------------|

And thatís it
Please rate it
cheers