Good Charlotte - Hold On Chords & Tabs

 

Hold On Chords & Tabs

Good Charlotte Chords & Tabs

Version: 9 Type: Tab

Hold On Tab

Hold On - Good Charlotte

Guitar Tune down 1 step, you need a capo or "A" 444Hz.

Moderate:135

Guitar1-Benji
Guitar2-Billy

Verses

--=1/4

|--------|--------|--------|--------|
|---5----|---5----|---7-5-8|-7-5----|
|-7---7-7|-7---7-7|-7------|-----7-7|
|--7---7-|--7---7-|--7-----|------7-|
|5-------|5-------|5-------|--------|
|--------|--------|--------|--------|

|--------|--------|--------|--------|
|---5----|---5----|---7-5-8|-7-5----|
|-7---7-7|-7---7-7|-7------|-----7-7|
|--7---7-|--7---7-|--7-----|------7-|
|5-------|5-------|5-------|--------|
|--------|--------|--------|--------|    ----=1/4
|                                   |
|--------|--------|--------|--------|   |----------------|----------------|
|7--8----|10-8----|7--8--12|10------|   |5/7---7/8-------|8/10--7/8-------|
|--------|--------|--------|--------| ! |----------------|----------------|
|--------|--------|--------|--------|   |----------------|----------------|
|--------|--------|--------|--------|   |----------------|----------------|
|--------|--------|--------|--------|   |----------------|----------------|

                                                    |10/12\10|
                                                      |  ^  |
                                        |----------------|----------------|
                                        |5/7---7/8-10--12|10--------------|
                                        |----------------|----------------|
                                        |----------------|----------------|
                                        |----------------|----------------|
                                        |----------------|----------------|

|--------|--------|--------|--------|
|---5----|---5----|---7-5-8|-7-5----|
|-7---7-7|-7---7-7|-7------|-----7-7|
|--7---7-|--7---7-|--7-----|------7-| x2
|5-------|5-------|5-------|--------|
|--------|--------|--------|--------|

|--------|--------|--------|--------|
|---5----|---5----|---7-5-8|-7-5----|
|-7---7-7|-7---7-7|-7------|-----7-7|
|--7---7-|--7---7-|--7-----|------7-| x2
|5-------|5-------|5-------|--------|
|--------|--------|--------|--------|
|                                   |
|--------|--------|--------|--------|
|7--8----|10-8----|7--8--12|10------|
|--------|--------|--------|--------|
|--------|--------|--------|--------| x2
|--------|--------|--------|--------|
|--------|--------|--------|--------|

Pre-Chorus

|--------|--------|--------|--------|
|--------|--------|7-75-7-8|-7-5-7--|
|--------|--------|7-------|------7-|
|7-------|5-------|7-------|--------|
|7-------|5-------|5-------|--------|
|5-------|3-------|--------|--------|
|                                   |
|--------|--------|--------|--------|
|--------|--------|--------|--------|
|--------|--------|7-------|--------|
|7-------|5-------|7-------|--------|
|7-------|5-------|5-------|--------|
|5-------|3-------|--------|--------|
                   P.M.----
|--------|--------|--------|--------|
|--------|--------|--------|--------|
|--------|--------|--------|--------|
|7-------|5-------|55555555|5555----|
|7-------|5-------|55555555|5555----|
|5-------|3-------|33333333|3333----|
|                  P.M.----         |
|--------|--------|--------|--------|
|--------|--------|--------|--------|
|--------|--------|--------|--------|
|7-------|5-------|55555555|5555----|
|7-------|5-------|55555555|5555----|
|5-------|3-------|33333333|3333----|

Chorus

|--------|--------|--------|--------|
|--------|--------|--------|--------|
|77777777|--------|--------|--------|
|77777777|77777777|99999999|55555555|
|55555555|77777777|99999999|55555555|
|55555555|55555555|77777777|33333333|
|                                   |
|--------|--------|--------|--------|
|--------|--------|--------|--------|
|77777777|--------|--------|--------|
|77777777|77777777|99999999|55555555|
|55555555|77777777|99999999|55555555|
|55555555|55555555|77777777|33333333|

|--------|--------|--------|--------|
|--------|--------|--------|--------|
|77777777|--------|--------|--------|
|77777777|77777777|999994-5|--------|
|55555555|77777777|999994-5|--------|
|55555555|55555555|777772-3|--------|
|                                   |
|--------|--------|--------|--------|
|--------|--------|--------|--------|
|77777777|--------|--------|--------|
|77777777|77777777|999994-5|--------|
|55555555|77777777|999994-5|--------|
|55555555|55555555|777772-3|--------|

Verses

|--------|--------|--------|--------|
|---5----|---5----|---7-5-8|-7-5----|
|-7---7-7|-7---7-7|-7------|-----7-7|
|--7---7-|--7---7-|--7-----|------7-| 2x
|5-------|5-------|5-------|--------|
|--------|--------|--------|--------|

|--------|--------|--------|--------|
|---5----|---5----|---7-5-8|-7-5----|
|-7---7-7|-7---7-7|-7------|-----7-7|
|--7---7-|--7---7-|--7-----|------7-| x2
|5-------|5-------|5-------|--------|
|--------|--------|--------|--------|
|                                   |
|--------|--------|--------|--------|
|7--8----|10-8----|7--8--12|10------|
|--------|--------|--------|--------|
|--------|--------|--------|--------| x2
|--------|--------|--------|--------|
|--------|--------|--------|--------|

Pre-Chorus
[ Tab from: https://www.guitartabs.cc/tabs/g/good_charlotte/hold_on_tab_ver_9.html ]
|--------|--------|--------|--------|
|--------|--------|7-75-7-8|-7-5-7--|
|--------|--------|7-------|------7-|
|7-------|5-------|7-------|--------|
|7-------|5-------|5-------|--------|
|5-------|3-------|--------|--------|
|                                   |
|--------|--------|--------|--------|
|--------|--------|--------|--------|
|--------|--------|7-------|--------|
|7-------|5-------|7-------|--------|
|7-------|5-------|5-------|--------|
|5-------|3-------|--------|--------|
                   P.M.----
|--------|--------|--------|--------|
|--------|--------|--------|--------|
|--------|--------|--------|--------|
|7-------|5-------|55555555|5555----|
|7-------|5-------|55555555|5555----|
|5-------|3-------|33333333|3333----|
|                  P.M.----         |
|--------|--------|--------|--------|
|--------|--------|--------|--------|
|--------|--------|--------|--------|
|7-------|5-------|55555555|5555----|
|7-------|5-------|55555555|5555----|
|5-------|3-------|33333333|3333----|

Chorus

|--------|--------|--------|--------|
|--------|--------|--------|--------|
|77777777|--------|--------|--------|
|77777777|77777777|99999999|55555555| 3x
|55555555|77777777|99999999|55555555|
|55555555|55555555|77777777|33333333|
|                                   |
|--------|--------|--------|--------|
|--------|--------|--------|--------|
|77777777|--------|--------|--------|
|77777777|77777777|99999999|55555555| 3x
|55555555|77777777|99999999|55555555|
|55555555|55555555|77777777|33333333|

|--------|--------|--------|--------|
|--------|--------|--------|--------|
|77777777|--------|--------|--------|
|77777777|77777777|999994-5|-5555555|
|55555555|77777777|999994-5|-5555555|
|55555555|55555555|777772-3|-3333333|
|                                   |
|--------|--------|--------|--------|
|--------|--------|--------|--------|
|77777777|--------|--------|--------|
|77777777|77777777|999994-5|-5555555|
|55555555|77777777|999994-5|-5555555|
|55555555|55555555|777772-3|-3333333|

Break

|--------|--------|--------|--------|
|--------|--------|--------|--------|
|66666666|77777777|--------|--------|
|||4-444444|44444444| 2x
|55555555|55555555|4-444444|44444444|
|--------|--------|2-222222|22222222|
|                                   |
|--------|--------|--------|--------|
|--------|--------|--------|--------|
|--------|--------|--------|--------|
|--------|--------|4-444444|44444444| 2x
|--------|--------|4-444444|44444444|
|--------|--------|2-222222|22222222|

|--9---9-|--9---9-|--------|--------|
|-10--10-|-10--10-|--------|--------|
|7---7---|7---7---|--------|--------|
|--------|--------|4-444444|44444444| 2x
|--------|--------|4-444444|44444444|
|--------|--------|2-222222|22222222|
|                                   |
|--------|--------|--------|--------|
|--------|--------|--------|--------|
|--------|--------|--------|--------|
|--------|--------|4-444444|44444444| 2x
|--------|--------|4-444444|44444444|
|--------|--------|2-222222|22222222|

|--9---9-|--9---9-|--------|--------|
|-10--10-|-10--10-|--------|--------|
|7---7---|7---7---|--------|--------|
|--------|--------|4-444444|55555555| 2x
|--------|--------|4-444444|55555555|
|--------|--------|2-222222|33333333|
|                                   |
|--------|--------|--------|--------|
|--------|--------|--------|--------|
|66666666|77777777|--------|--------|
|||4-444444|55555555| 2x
|55555555|55555555|4-444444|55555555|
|--------|--------|2-222222|33333333|

Chorus

|--------|--------|--------|--------|
|--------|--------|--------|--------|
|77777777|--------|--------|--------|
|77777777|77777777|99999999|55555555| 2x
|55555555|77777777|99999999|55555555|
|55555555|55555555|77777777|33333333|
|                                   |
|--------|--------|--------|--------|
|--------|--------|--------|--------|
|77777777|--------|--------|--------|
|77777777|77777777|99999999|55555555| 2x
|55555555|77777777|99999999|55555555|
|55555555|55555555|77777777|33333333|

|--------|--------|--------|--------|
|--------|--------|--------|--------|
|77777777|--------|--------|--------|
|77777777|77777777|99999999|5-------|
|55555555|77777777|99999999|5-------|
|55555555|55555555|77777777|3-------|
|                                   |
|--------|--------|--------|--------|
|--------|--------|--------|--------|
|77777777|--------|--------|--------|
|77777777|77777777|99999999|5-------|
|55555555|77777777|99999999|5-------|
|55555555|55555555|77777777|3-------|

|--------|--------|--------|--------|
|--------|--------|--------|--------|
|77777777|--------|--------|--------|
|77777777|77777777|99999999|55555555| 2x
|55555555|77777777|99999999|55555555|
|55555555|55555555|77777777|33333333|
|                                   |
|--------|--------|--------|--------|
|--------|--------|--------|--------|
|77777777|--------|--------|--------|
|77777777|77777777|99999999|55555555| 2x
|55555555|77777777|99999999|55555555|
|55555555|55555555|77777777|33333333|

|--------|--------|--------|--------|
|--------|--------|--------|--------|
|77777777|--------|--------|--------|
|77777777|77777777|999994-5|-5555555|
|55555555|77777777|999994-5|-5555555|
|55555555|55555555|777772-3|-3333333|
|                                   |
|--------|--------|--------|--------|
|--------|--------|--------|--------|
|77777777|--------|--------|--------|
|77777777|77777777|999994-5|-5555555|
|55555555|77777777|999994-5|-5555555|
|55555555|55555555|777772-3|-3333333|

|--------|--------|--------|--------|
|--------|--------|--------|--------|
|77777777|--------|--------|--------|
|77777777|77777777|999994-5|--------|
|55555555|77777777|999994-5|--------|
|55555555|55555555|777772-3|--------|
|                                   |
|--------|--------|--------|--------|
|--------|--------|--------|--------|
|77777777|--------|--------|--------|
|77777777|77777777|999994-5|--------|
|55555555|77777777|999994-5|--------|
|55555555|55555555|777772-3|--------|

Outro

1/4=110

|--9---9-|--9-----|9-------|--------||
|-10--10-|-10---10|10------|--------||
|7---7---|7---7---|7-------|--------||
|--------|--------|--------|--------||
|--------|--------|--------|--------||
|--------|--------|--------|--------||

Tabbed by: Gergely